Misc. Unsigned Bands - John Nathaniel - Undecided Text Guitar Tab

Learn the song with the online tablature player
Piano Part

Intro
|------------0--------------|
|--------0^1---1-3-1---1----|
|------2-------------4---4--|
|----2----------------------|
|--0------------------------|
|------------1---3----------|

|------------0------0------|
|--------0^1---1-3--3-1-3--|
|------2----------------4--|
|----2---------------------|
|--0-----------------------|
|------------1---3--0------|

|--0-----0-----0-----0--|
|----------1-----3-1-0--|
|------2-----2----------|
|----2------------------|
|--0--------------------|
|--------1-----3-----0--|

Outro
|------------0----------|
|--------0^1---1-3-1-0--|
|------2----------------|
|----2------------------|
|--0--------------------|
|------------1---3------|

Guitar

Verses
|--0--0--0--|
|--1--1--0--|
|--2--0--0--|
|--2--3--5--|
|--0--3--5--|
|-----1--3--|

|--0--0--0--1--0--0--|
|--1--1--0--3--0--0--|
|--2--0--0--2--0--0--|
|--2--3--5--0--3--5--|
|--0--3--5--0--3--5--|
|-----1--3-----1--3--|

Chorus
|--0--0--0--0--|
|--1--1--3--0--|
|--2--0--0--0--|
|--2--3--5--2--|
|--0--3--5--2--|
|-----1--3--0--|

|--0--0--0--0--1--0--0--|
|--1--1--3--0--3--1--0--|
|--2--0--0--0--2--0--0--|
|--2--3--5--2--0--3--5--|
|--0--3--5--2--0--3--5--|
|-----1--3--0-----1--3--|

(leading into bridge)
|--0--0--0--0--1--0--0--0--0--0--|
|--1--1--3--0--3--1--0--0--1--3--|
|--2--0--0--0--2--0--0--0--0--0--|
|--2--3--5--2--0--3--5--2--3--5--|
|--0--3--5--2--0--3--5--2--3--5--|
|-----1--3--0-----1--3--0--1--3--|

Bridge
|--3--0--1--0--0--0--3--0--0--1--0--3--|
|--3--1--1--1--0--1--3--0--1--3--1--3--|
|--0--2--0--2--0--0--0--0--2--2--0--0--|
|--5--2--3--2--2--3--5--2--2--0--3--5--|
|--5--0--3--0--2--3--5--2--0--0--3--5--|
|--3-----1-----0--1--3--0--------1--3--|

|--1--0--0--0--|
|--3--1--1--3--|
|--2--0--2--0--|
|--0--3--2--5--|
|--0--3--0--5--|
|-----1-----3--|

Outro
|--1--0--1--0--3--|
|--3--1--3--1--3--|
|--2--0--2--0--0--|
|--0--3--0--3--5--|
|--0--3--0--3--5--|
|-----1-----1--3--|