Misc. Unsigned Bands - Johnathantrantorilanto - Guitar Riffid Presume Text Guitar Tab

Learn the song with the online tablature player
------------------------------------------|
------------------------------------------|
------------------------------------------|
----3---3-----3-3-3-3-----3-3----3-3-3----|
----2---2-----2-2-2-2-----2-2----2-2-2----|
------------------------------------------|

------------------------------------------|
------------------------------------------|
------------------------------------------|
------------------------------------------|
----3---3-----3-3-3-3-----3-3----3-3-3----|
----2---2-----2-2-2-2-----2-2----2-2-2----|

this guy is the next music artist of the decade