Misc. Unsigned Bands - Jose Hector - Enamorado De Una Ilusion Text Guitar Tab

Learn the song with the online tablature player
Verse I

vivir sin ti es llegar a la conclusión
el sufrir ahora es mi emoción
no se que hacer y pienso no hay opción
tengo que aguantar superar esta pasión

Chorus

pensando en ti
pensando en la razón
pensando en mi
sintiendo el dolor

creyéndote
amándote mi amor
sin saber
que seria una ilusión

Verse II

en realidad te extraño mi amor
y pensar todo fue imaginación
en realidad yo te di mi corazón
y resulto que todo era una ilusión

Chorus

pensando en ti
pensando en la razón
pensando en mi
sintiendo el dolor

creyéndote
amándote mi amor
sin saber
que seria una ilusión

enamorado de una ilusión

All verses

‎e|-----------------------------------------------------------------------|
B|------------------------------1-----1-----1---1------------------------|
G|-------2----2----2----2----2--2----2-----2--.-2------------------------|
D|------2----2----2----2---0------0----0----0----------------------------|
A|-----0----2----4----5--------------------------------------------------|
E|-----------------------------------------------------------------------|

Chorus

e|-----------------------------------------------------------------------|
B|-----------------------------------------------------------------------|
G|---2-2-2--xx---4-4-4-xx---6-6-6----------------------------------------|
D|---0-0-0--xx---2-2-2-xx---4-4-4--6-6--4-4--4-4-4-4-4-4-----------------|
A|---------------------------------4-4--2-2--2-2-2-2-2-2-2-2-------------|
E|-----------------------------------------------------------------------|