Misc. Unsigned Bands - Josh And Aaron - Intoxicating Text Guitar Tab

Learn the song with the online tablature player
Intro

|---------------------------------------------||
|---------------------------------------------||
|---------------------------------------------||(play 8x)
|---------------------------------------------||
|------------2--------------------------------||
|-0-0-0-0--1----3-----------------------------||
PM--------|

|----------------------------------------------||
|----------------------------------------------||
|----------------------------------------------||(play 2x)
|--5-----(5)---6-----(6)-----------------------||
|--5-----(5)---6-----(6)-----------------------||
|--3-----(3)---4-----(4)-----------------------||

|-----------------------------------------------||
|-----------------------------------------------||
|-----------------------------------------------||
|-----------------------------------------------||
|------5-3--------------7-5------------9-7------||
|-4-3-------0-0----6-5-------0-0--8-7-------0-0-||
PM---       ---    ---       ---  ---       ---|

|-----------------------------------------------||
|-----------------------------------------------||
|-----------------------------------------------||
|-----------------------------------------------||
|-------11-9--------------13-11-----------------||
|-10-9--------0-0--12-11------------------------||
PM----        ---  -----|

solo
  T      T      T      T      T      T      T
||15p12--15p12--16p12--16p12--17p12--17p12--18p12|
||-----------------------------------------------|
||-----------------------------------------------|
||-----------------------------------------------|
||-----------------------------------------------|
||-----------------------------------------------|

 T      T      T      T      T      T      T
|18p12--19p12--19p12--20p12--20p12--19p12--19p12-|
|------------------------------------------------|
|------------------------------------------------|
|------------------------------------------------|
|------------------------------------------------|
|------------------------------------------------|

|18p12--18p12--17p12--17p12--16p12--16p12--15p12--15p12||
|------------------------------------------------------||
|------------------------------------------------------||( play x3)
|------------------------------------------------------||
|------------------------------------------------------||
|------------------------------------------------------||

I will have more later