Misc. Unsigned Bands - Jw Wilms - Wilhelmus Text Guitar Tab

Learn the song with the online tablature player
               2x
e>--------------------------------|--------0-----------------------------|
b>---------0-1---0---0-1-0--------|--0-1-3---3-1-0---0-1-0---------------|
g>---0-0-2-----2---2-------2-0-2-0|----------------2-------2-0-2---------|
d>--0-----------------------------|--------------------------------------|
a>--------------------------------|--------------------------------------|
E>--------------------------------|--------------------------------------|

e>-------------------------------------------------------------------------|
b>-----------0-----4-0-2-4-----4-------------------------------------------|
g>----0--0-2---2-0---------0-0---0-----------------------------------------|
d>--0--4-------------------------------------------------------------------|
a>-------------------------------------------------------------------------|
E>-------------------------------------------------------------------------|

Made by Patrick Huijten