Misc. Unsigned Bands - Kaleo - She Called First Text Guitar Tab

Learn the song with the online tablature player
Intro
|-2-0---------------------2-0-----------------5-5/---------------|
|-2-0-3-2-----------------2-0-3-2--------------------------------|
|-----4-2-------2-2/4-2-------4-2-------2-2/6--------------------|
|---------2-2-4-------------------2-2-4--------------------------|
|----------------------------------------------------------------|
|----------------------------------------------------------------|

|-2-0----------------------------4-4-|
|-2-0-3-2---------------4-4-5-5--4-4-|
|-----4-2-------2-2/4-2-4-4-6-6------|
|---------2-2-4----------------------|
|------------------------------------|
|------------------------------------|