Misc. Unsigned Bands - Keyboard Cat - Keyboard Cat Text Guitar Tab

Learn the song with the online tablature player
Play Him Off, Keyboard Cat!

e|-------------|-------------|------------|------------------|
B|-------------|-------------|------------|------------------|
G|----9--12--9-|----5--9--5--|---4--7--4--|------------------|
D|-10----------|--7----------|-5----------|--5-5-5--55-5555--|
A|-------------|-------------|------------|------------------|
E|-------(2x)--|-------(2x)--|-------(2x)-|------------------|

e|-------------|-------------|------------|------------------|
B|-------------|-------------|------------|------------------|
G|----9--12--9-|----7--10-7--|---5--9--5--|------------------|
D|-10----------|--9----------|-7----------|--5~--------------|
A|-------------|-------------|------------|------------------|
E|-------(2x)--|-------(2x)--|-------(2x)-|------------------|