Misc. Unsigned Bands - Khaos - Fallen Down Text Guitar Tab

Learn the song with the online tablature player
Intro A
[x4]
]----------------------------------------------------------[
]----------------------------------------------------------[
]------9------9------9------9------9------9------9-------9-[
]---10-----10-----10-----10-----10-----10-----10------10---[
]-8------8------0------0-----------------------------------[
]-----------------------------8------8------0-------0------[

Intro B
[x4]
]-------------------------------------[
]-------------------------------------[
]-9--9--9--9--9--9--9--9--9--9--9--9--[
]-10-10-10-10-10-10-10-10-10-10-10-10-[
]-8--8--8--8--8--8--0--0--0--0--0--0--[
]-8--8--8--8--8--8--0--0--0--0--0--0--[

Verse
[x4]
]----------------------------------------------------------[
]----------------------------------------------------------[
]------9------9------9------9------9------9------9-------9-[
]---10-----10-----10-----10-----10-----10-----10------10---[
]-8------8------0------0-----------------------------------[
]-----------------------------8------8------0-------0------[

Chorus
[x8]
]-------------------------------------[
]-------------------------------------[
]-9--9--9--9--9--9--9--9--9--9--9--9--[
]-10-10-10-10-10-10-10-10-10-10-10-10-[
]-8--8--8--8--8--8--0--0--0--0--0--0--[
]-8--8--8--8--8--8--0--0--0--0--0--0--[

Verse
[x4]
]----------------------------------------------------------[
]----------------------------------------------------------[
]------9------9------9------9------9------9------9-------9-[
]---10-----10-----10-----10-----10-----10-----10------10---[
]-8------8------0------0-----------------------------------[
]-----------------------------8------8------0-------0------[

Chorus
[x8]
]-------------------------------------[
]-------------------------------------[
]-9--9--9--9--9--9--9--9--9--9--9--9--[
]-10-10-10-10-10-10-10-10-10-10-10-10-[
]-8--8--8--8--8--8--0--0--0--0--0--0--[
]-8--8--8--8--8--8--0--0--0--0--0--0--[

Verse
[x4]
]----------------------------------------------------------[
]----------------------------------------------------------[
]------9------9------9------9------9------9------9-------9-[
]---10-----10-----10-----10-----10-----10-----10------10---[
]-8------8------0------0-----------------------------------[
]-----------------------------8------8------0-------0------[

Chorus
[x8]
]-------------------------------------[
]-------------------------------------[
]-9--9--9--9--9--9--9--9--9--9--9--9--[
]-10-10-10-10-10-10-10-10-10-10-10-10-[
]-8--8--8--8--8--8--0--0--0--0--0--0--[
]-8--8--8--8--8--8--0--0--0--0--0--0--[

End of Song :)