Misc. Unsigned Bands - Kid Deposit Triumph - Stay Gold Ponyboy Text Guitar Tab

Learn song with the online tabulature player
HOPEFULLY I GET THE REST OF THIS DONE LATER :)

GUITAR 1
|---12---12---12-11---11---11-12---12---12-11---11---11--|
|-----9-9--9-9--9--9-9--9-9--9--9-9--9-9--9--9-9--9-9--9-|
|--------------------------------------------------------|
|--------------------------------------------------------|
|--------------------------------------------------------|
|--------------------------------------------------------|

GUITAR 1
|---12---12---12-11---11---11-12---12---12-11---11---11--|
|-----9-9--9-9--9--9-9--9-9--9--9-9--9-9--9--9-9--9-9--9-|
|--------------------------------------------------------|
|--------------------------------------------------------| x3
|--------------------------------------------------------|
|--------------------------------------------------------|

GUITAR 2
|-----------------------------------------------------------------------|
|-0-7-10-0-7-10-0-10-0-6-9-0-6-9-0-9-0-7-10-0-7-10-0-10-0-6-9-0-6-9-0-9-|
|-----------------------------------------------------------------------|
|-----------------------------------------------------------------------| x3
|-----------------------------------------------------------------------|
|-----------------------------------------------------------------------|