Misc. Unsigned Bands - Kill The Dead - Forgiven Text Guitar Tab

Learn the song with the online tablature player
Do this 4 times and on the last note of the 4th time bend the h3 then pull off
e|--------------------------------------------------------------------------|
B|--------------------------------------------------------------------------|
G|--------------------------------------------------------------------------|
D|--------------------------------------------------------------------------|
A|-0 h3h5h3-3h5h3-----------------------------------------------------------|
E|-0 h3h5h3-3h5h3-----------------------------------------------------------|
Do this 3 times as well
e|---------------------------------------------------------------------------|
B|---------------------------------------------------------------------------|
G|---------------------------------------------------------------------------|
D|---------------------------------------------------------------------------|
A|------9------9------9\10/9-------------------------------------------------|
E|-00h7---00h7---00h7--------------------------------------------------------|

Play this while 2nd guitar plays solo
will be added later, repeat till solo is over)
e|---------------------------------------------------------------------------|
B|---------------------------------------------------------------------------|
G|---------------------------------------------------------------------------|
D|---------------------------------------------------------------------------|
A|-7~~~7-6-7~7~7 6 7---------------------------------------------------------|
E|-5~~~5-4-5~5~7-6-7---------------------------------------------------------|

More will be added later