Misc. Unsigned Bands - Killinger - Holding On Text Guitar Tab

Learn the song with the online tablature player
Band Site: Killingerrocks.com
I noticed that there is no tabs anywhere for this so i will tab it.
I do not own the rights to this, this is for educational and personal purposes.
I did this by ear so some parts may not be exactly correct.

EADGBe

Intro and Chorus
|------------------------------------|
|----------------------------------3-|
|---2---0----0--2-------2---0---0--2-|
|--2---4----0--0-------2---5---0---0-|
|-0--/5---------------0--/4----------|
|---------3------3^~---------3-------|
Let all notes ring.

Verse
|-------------------------------------------------------|
|-------------------------------------------------------|
|--2--------------7-5--5---------2---------------0--0---|
|--2-2-2-2-2-2-2--7-5--5---------2-2-2-2-2-2-2--0--0----|
|--0-0-0-0-0-0-0------0-0-0-3^~--0-0-0-0-0-0-0-------3^~|
|----------------------------------------------2--3-----|
     * * * * * *      * * *        * * * * * *

Pre-Chorus
|------------------------------------------------|
|------------------------------------------------|
|------------------------------------------------|
|-2~~-9\7-----------------2~~--------------------|
|-2~~-7\5---7-7--5~-------2~~--------------------|
|-0~~-----0-5-5--3~-0-3^~-0~~-0-2~-00-3~-00-3/5~-|
          *         *

Solo
|-------------------------------------------------------------|
|-10~--12-13-10-12-10------12-13-10-12-10------12-13-10-12-10-|
|---------------------10~-----------------12~-----------------|
|-------------------------------------------------------------|
|-------------------------------------------------------------|
|-------------------------------------------------------------|

|------------------------------------|
|------------------------------------|
|-10-9-10-9-10-9-10-9-10-9-10-9/14~~-|
|------------------------------------|
|------------------------------------|
|------------------------------------|

|-------------------------------------------------------------|
|-13-12h13p12-10-13-12h13p12-10-13-12h13p12-10-13-12h13p12-10-|
|-------------------------------------------------------------|
|-------------------------------------------------------------|
|-------------------------------------------------------------|
|-------------------------------------------------------------|

|----------------------|
|-15-13-12h13p12-10----|
|-------------------10-|
|----------------------|
|----------------------|
|----------------------|

|-------------------------------------------------------------|
|-13-12h13p12----13-12h13p12----13-12h13p12----13-12h13p12----|
|-------------10-------------10-------------10-------------10-|
|-------------------------------------------------------------|
|-------------------------------------------------------------|
|-------------------------------------------------------------|

|-----------------------|
|-15-13-12h13p12h-------|
|-----------------14-12-|
|-----------------------|
|-----------------------|
|-----------------------|

|-------------------------------------------------------------|
|-13-12h13p12----13-12h13p12----13-12h13p12----13-12h13p12----|
|-------------12-------------12-------------12-------------12-|
|-------------------------------------------------------------|
|-------------------------------------------------------------|
|-------------------------------------------------------------|

|-------------------------------------------------------------------------|
|-15-13-12h13p12h-----17-15h17p15-13h15p13-12h13p12-10h12p10--------------|
|-----------------14-----------------------------------------12br10-12-12-|
|-------------------------------------------------------------------------|
|-------------------------------------------------------------------------|
|-------------------------------------------------------------------------|

|-------------------------------------------------------------|
|-13-12h13p12-10-13-12h13p12-10-13-12h13p12-10-13-12h13p12-10-|
|-------------------------------------------------------------|
|-------------------------------------------------------------|
|-------------------------------------------------------------|
|-------------------------------------------------------------|

|----------------------|
|-15-13-12h13p12-10----|
|-------------------10-|
|----------------------|
|----------------------|
|----------------------|

|-------------------------------------------------------------|
|-13-12h13p12----13-12h13p12----13-12h13p12----13-12h13p12----|
|-------------10-------------10-------------10-------------10-|
|-------------------------------------------------------------|
|-------------------------------------------------------------|
|-------------------------------------------------------------|

|-----------------------|
|-15-13-12h13p12h-------|
|-----------------14-12-|
|-----------------------|
|-----------------------|
|-----------------------|

|-------------------------------------------------------------|
|-13-12h13p12----13-12h13p12----13-12h13p12----13-12h13p12----|
|-------------12-------------12-------------12-------------12-|
|-------------------------------------------------------------|
|-------------------------------------------------------------|
|-------------------------------------------------------------|

|-------------------------------------------------------------------------|
|-15-13-12h13p12h-----17-15h17p15-13h15p13-12h13p12-10h12p10--------------|
|-----------------14-----------------------------------------12br10-12-12-|
|-------------------------------------------------------------------------|
|-------------------------------------------------------------------------|
|-------------------------------------------------------------------------|

LEGEND                             *
                                   *
| /   slide up                     *
| \   slide down                   *
| h   hammer-on                    *
| p   pull-off                     *
| ~   vibrato                      *
| +   harmonic                     *
| x   Mute note                    *
| b   Bend                         *
| pb  Pre-bend                     *
| br  Bend release                 *
| pbr Pre-bend release             *
| brb Bend release bend            *
                                   *
LEGEND                             *