Misc. Unsigned Bands - Killix - Unite Text Guitar Tab

Learn song with the online tabulature player
This is a song Killix never, ever, plays in the same way. And thus this tab is more 
than a real tab.

The fillers usually follows the same pattern, with a quick bend and a slow release 
having a small run. As for the chorus, that's always depending on how the mood is.

The guitarist, Hatake, usually adds in some runs just for the fun of it.

Anyhow: Here goes.

Main Riff:
|-------------------------------------------------|
|-------------------------------------------------|
|--------------------7----------------------------|
|--------------------7----------------------------|
|-------7----7---7-9---9------------7---7-7b8--7~-|
|--7-10---10---9---------------7-10---9-----------|

Fillers:
|---------------------------------------------------------21b23--21-19-21---------------|
|--20b22--20-17-20--------------------------------------------------------21-19\17------|
|------------------20-17------------------------------------------------------------18~-|
|------------------------19-17----------------------------------------------------------|
|------------------------------19-17\15-------------------------------------------------|
|----------------------------------------17~--------------------------------------------|

Chorus:
|----------------------------------------|
|----------------------------------------|
|--9b10--9-7-------7---------------------|
|--9b10—--9-7-9-7-9---9-7---7------------|
|------------------------9---9-7---------|
|--------------------------------10-7~---|

(Killix is not a very famous band, not even nationally, but that is
supposedly mainly because they haven't even bothered to make themselves a homepage and 
their music.
Due to them all studying full time, they have also been playing less regularly on stage 
what they used to do, and in this summer)