Misc. Unsigned Bands - Killrbuckeye - Arrival Text Guitar Tab

Learn the song with the online tablature player
D|--------------------------------------|
A|--------------------------------------|
F|---------0-----------0----------0-----|
C|----9----------5-----------2----------|
G|--7----------3-----------0------------|
C|7-----7----3------3----0-----0--------|

D|---------------------------------------|
A|---------------------------------------|
F|------------0-----------0------------0-|
C|-----5------------9-----------5--------|
G|---3------------7-----------3----------|
C|-3------3-----7------7----3-------3----|

D|-------------------------------------|
A|-------------------------------------|
F|----------0------------0-----------0-|
C|-----5----------9------------5-------|
G|---3----------7------------3---------|
C|-3-----3----7-------7----3------3----|

D|-------------------------------------|
A|-------------------------------------|
F|------------0------------------------|
C|-----2-------------------------------|
G|---0---------------------------------|
C|-0------0----------------------------|
(repeat like 1 or 2 more times listen to the song

Okay i was in the mood to do this it is the solo for the very beginning
i could have done this in the very beginning when i made this but i got pretty lazy
completeing the first part it took
me a nice 20 minutes XD but what can i say imma
noob tabulature writer

Solo
Beginning or intro)

D|--------------------------------------|
A|--------------------------------------|
F|--------------------------------------|
C|-9^-7-5-7-5-7~~-9^-7-5-7-5-3~~--------|
G|--------------------------------------|
C|--------------------------------------|

D|--------------------------------------|
A|--------------------------------------|
F|--------------------------------------|
C|9^-7-5-7-5-7~~-9^-7-5-7-5-3~~---------|
G|--------------------------------------|
C|--------------------------------------|
(you do all this 8 times total i believe and on the 7th time you play 3~~ instead of 9~~)

Legend:
~~-Vibrato
^-Bend upwards