Misc. Unsigned Bands - Kingbastard - My Head Is A Balloon Text Guitar Tab

Learn the song with the online tablature player
chord progression
C  Cmaj9  Am  Fmaj7  Gadd9

And the solo diddy not 100%

e-------------------------------------------------------------------|
b-------------------------------------------------------------------|
g-------------------------------------------------------------------|
D-----------12---10---12--12/14---12--10---12--10---12/15-----------|
A---10h11h12--------------------------------------------------------|
E-------------------------------------------------------------------|

e-------------------------------------------------------------------|
b-------------------------------------------------------------------|
g-------------------------------------------------------------------|
D--12----10----------------------------------------------12-10------|
A------------12--10---12-----------10--12-12-----12-------------12--|
E------------------------10h12------------------------13------------|

e-------------------------------------------------------------------|
b-------------------------------------------------------------------|
g-------------------------------------------------------------------|
D-------------------------------------------------------------------|
A-12--12--12--------------10--12---10-------------------------------|
E---------------13---13-----------------13--------------------------|