Misc. Unsigned Bands - Knights Of Icaria - We Three Kings Text Guitar Tab

Learn the song with the online tablature player
Here it is.

(1)
e0---------------|
B--3-1---0-1-0---| x2 then (2)
G------2-------2-|
D----------------|
A----------------|
E----------------|

(2)
e---------------3------------------------|
B1--1-3--3-5--5---5-3-1-3-1-0------------|
G-----------------------------4-2-0------| Then(3)
D-----------------------------------2--0-|
A----------------------------------------|
E----------------------------------------|

(3)
e-----------------------|
B-3~--3-3----3---3~-----| x2 Then (2)
G----------4---4--------|
D-----------------------|
A-----------------------|
E-----------------------|