Misc. Unsigned Bands - Kool Shades - Starship Go Text Guitar Tab

Learn the song with the online tablature player
just the intro im obviously workin on the whole album
it doesn’t sound totally rite but its getting there
(please post corrections)

E|------------------------------------------|
B|------------------------------------------|
G|---555-6------------555-------------------|
D|---555-6--XX-XXX----555--XX-XXX-----------|
A|---333-4--XX-XXX----333--XX-XXX-----------|
E|----------XX-XXX---------XX-XXX-----------|

E|------------------------------|
B|------------------------------|
G|------------------------------|
D|------------------------------|
A|-33-66-55-55----33-66-55------|
E|-------------------------33---|

 PM ..........   .............

E|------------------------------|
B|------------------------------|
G|------------------------------|
D|------------------------------|
A|-33-66-55-55----33-66-55------|
E|-------------------------33---|

 PM ..........   .............