Misc. Unsigned Bands - Krooked Tooth - At The Beginning Text Guitar Tab

Learn song with the online tabulature player
kROOKED TOOTH ARE NEW, NO CD YET, BUT THEY WERE PLAYING NEAR MY HOUSE.
PEOPLE ARE LIKING THEIR MUSIC , WHO I HAVE SPOKEN TO.


BAND = KROOKED TOOTH
SONG = AT THE BEGINNING
YEAR = 2004
GENRE = ROCK
BAND NATIONALITY = BRITISH


INTRO = 

X------------------------         X4
X------------------------
X------------------------
X------------------------
-7-7-7-3-3-3-0-0-0-0-X-X-
-5-5-5-1-1-1-3-3-3-0-3-5-
VERSE =
-------------------------
-------------------------
-2-----------------------
-2-2-5-------------------
---2-5-5----------------
-------5-----------------
play until roking verse kicks in
going........2 4 5 on low e string in power chords.