Misc. Unsigned Bands - Laying Jade - Shoplifter Text Guitar Tab

Learn the song with the online tablature player
e------5-8-8-7-5-4-5-----------------|
B--0-5---------------5-3-5-6-6/9-6-5-|
G------------------------------------|
D------------------------------------|
A------------------------------------|
E------------------------------------|

e------5-8-8-7-5-4-5-----------8-7-5-4-5-|
B--0-5---------------5-3-5-6-6-----------|
G----------------------------------------|
D----------------------------------------|
A----------------------------------------|
E----------------------------------------|