Misc. Unsigned Bands - Leaving Bend - Rich Girlfriend Text Guitar Tab

Learn the song with the online tablature player
This is a new artist in bend oregon just listened to them play
                             Rich Girlfriend - Leaving Bend

e|---------------------------------------------------------------|
B|-------1----------1--------------------------------------------|
G|-----------------------------2-----------2---------------------|
D|-----------------------0----------0----------------------------|
A|--4---------4--------------------------------------------------|
E|---------------------------------------------------------------|
Chorus Palm muted played hard
e|---------------------------------------------------------------
B|---------------------------------------------------------------
G|-------4-4---7-7-----------------------------------------------|
D|--2-2--4-4---7-7-7-7-------------------------------------------|
A|--0-0--2-2---5-5-7-7-------------------------------------------|
E|--0-0------------5-5-------------------------------------------|
Solo after first verse Vibrato (FAST
e|---------------------------------------------------------0----|
B|----------------------------------------------------2---------|
G|------------------6-6-4--------------------6-4-6------1-4-----|
D|-2-2-2h4-2-2-2h4--6----6-4-2-2-2h4-2-2-2h4-6----4----------4s6|
A|--------------------------------------------------------------|
E|--------------------------------------------------------------|

e|-----------0---------------------------------------------------|
B|-----2---------------------------------------------------------|
G|-------1-4------4----------------------------------------------|
D|-4s6--------4s6-2----------------------------------------------|
A|---------------------------------------------------------------|
E|---------------------------------------------------------------|