Misc. Unsigned Bands - Life In Film - Alleyway Acoustic Text Guitar Tab

Learn the song with the online tablature player
                             ALLEYWAY (acoustic) -- LIFE IN FILM

Intro
e|--------11--14-----------11--|
B|-11/12----------9-11-12------|
G|-----------------------------|
D|-----------------------------|X8
A|-----------------------------|
E|-----------------------------|

e|--------11--14---------11--14--|
B|-11/12----------11/12----------|
G|-------------------------------|
D|-------------------------------|X2
A|-------------------------------|
E|-------------------------------|

Chords accompanying intro-- comes in after second bar of intro
e|--7--|      |--0--|
B|--7--|      |--0--|   this sequence played x2
G|--8--|      |--1--|
D|--9--|x2    |--2--|X2
A|--9--|      |--2--|
E|--7--|      |--0--|

Verse 1
- Chords
e|--7--|      |--0--|
B|--7--|      |--0--|   this sequence played x4
G|--8--|      |--1--|
D|--9--|x2    |--2--|X2
A|--9--|      |--2--|
E|--7--|      |--0--|

Chorus
e|--6--|--7--|
B|--7--|--7--|
G|--8--|--9--|
D|--8--|--9--|X3
A|--6--|--7--|
E|--x--|--x--|

Turnaround-- intro repeated for 4 bars with chording accompaniment
e|--7--|      |--0--|
B|--7--|      |--0--|   this sequence played x1
G|--8--|      |--1--|
D|--9--|x2    |--2--|X2
A|--9--|      |--2--|
E|--7--|      |--0--|

Verse 2
- same as first verse 1
Chorus repeated
Turnaround repeated

Bridge

e|--7--|    |--7--|    |--7--|
B|--7--|    |--7--|    |--7--|    this sequence played x4
G|--8--|    |--8--|    |--8--|
D|--9--|X2  |--9--|X1  |--9--|X1
A|--9--|    |--7--|    |--9--|
E|--7--|    |--x--|    |--7--|

e|--7--|
B|--7--|
G|--8--|
D|--9--|X1
A|--9--|
E|--7--|

Verse 3

e|--7--|
B|--7--|
G|--8--|
D|--9--|
A|--9--|
E|--7--|

| /   slide up
| \   slide down
| h   hammer-on
| p   pull-off
| ~   vibrato
| +   harmonic
| x   Mute note
| b   Bend
| pb  Pre-bend
| br  Bend release
| pbr Pre-bend release
| brb Bend release bend