Misc. Unsigned Bands - Linear - If You Go Away Text Guitar Tab

Learn song with the online tabulature player
Standard tuning with capo on the 1st fret (So any time it says "1" it's technically on "2" etc.)
Awesome band, wicked song

They WERE a signed band back in the late 80's/ early 90's but I had to do it this way because
no one had heard of them. If you have heard of them then WOOT!!!

e|----0-3~-----------0-3~-----------0-3~--------0-1~------------|
B|---1-----5--------0-----5--------1-----5-----1-----3----------|
G|--5-------4-----5--------4-----5--------4---4-------2---------|
D|--------------------------------------------------------------|
A|--------------------------------------------------------------|
E|--------------------------------------------------------------|

e|----3---1p0---0h1----------------0--1-------0--1p0-0-0h1------|
B|------1-----3-----1------------x------1-----0--0~--3-0--1-0---|
G|--5-----------------0~---0-2-3-----0----0~--0--0~--0-0--0-0---|
D|--------------------------------------------0-----------------|
A|--------------------------------------------0-----------------|
E|--------------------------------------------------------------|

Rest of the song to come!