Misc. Unsigned Bands - Lithium - Suicidal Princess Text Guitar Tab

Learn song with the online tabulature player
Were a new band, were have a single cd coming out soon.
Our names Lithium
this guy: on lead guitar           \
Him: on bass and word sayer guy     > Alian ant farm gave me this idea 
The other dude: back guitar        /

play the hole song 3 times

|------------------------------------------|
|----3----3----3----3----3-----------------|
|---2----2----2----2----2------------------|
|-0----0----0----0----0--------------------|
|------------------------------------------|
|------------------------------------------|


|------------------------------------------|
|-----3----3----3----3----3----------------|
|---0----0----0----0----0------------------|
|------------------------------------------|
|-3----3----3----3----3--------------------|
|------------------------------------------|


|------------------------------------------|
|----3----3----3----3----3-----------------|
|---2----2----2----2----2------------------|
|-0----0----0----0----0--------------------|
|------------------------------------------|
|------------------------------------------|


|------------------------------------------|
|-----3----3----3----3----3----------------|
|---0----0----0----0----0------------------|
|------------------------------------------|
|-3----3----3----3----3--------------------|
|------------------------------------------|


|------------------------------------------|
|-----3----3----3----3----3----------------|
|---0----0----0----0----0------------------|
|------------------------------------------|
|------------------------------------------|
|-3----3----3----3----3--------------------|