Misc. Unsigned Bands - Liver Of A Duck - Prometheus Song Text Guitar Tab

Learn song with the online tabulature player
e ----------------------------------------------------------------------|
h ----------------------------------------------------------------------|
g ----------------------------------------------------------------------|
d ----------------------------------------------------------------------|
A -0---0---3---3---4------0---0---3---3---4------0---0---3---3---4---5--|
E -0---0---3---3---4------0---0---3---3---4------0---0---3---3---4---5--|


e ----------------------------------------------------------------------|
h ----------------------------------------------------------------------|
g ----------------------------------------------------------------------|
d ----------------------------------------------------------------------|
A -0---0---5---5---4------0---0---5---5---4------0---0---5---5---4---3--|
E -0---0---5---5---4------0---0---5---5---4------0---0---5---5---4---3--|