Misc. Unsigned Bands - Love Aaj Kal - Chor Bazari Text Guitar Tab

Learn song with the online tabulature player
Here is the Guitar tab for lead played in Chor Bazari from the movie Love Aaj Kal.

By Bikash Dey..

E||-----| strum this in place of      E||----|
B||--6--|                             B||--*-|
G||--7--|                             G||--*-|
D||--8--|                             D||--*-|
A||--8--|                             A||--*-|
E||-----|                             E||----|



E||---------------------|---------------|| (Listin to song get timing).
B||--*----8p6---6-------|-*----8p6------||
G||--*--------8---------|-*--------8----||
D||--*------------------|-*----------8--||
A||--*------------------|-*-------------||
E||---------------------|---------------||


                                       
E||--------------------------------|------------------------------||
B||--9h11-11--8h9p8-7---8p6---6----|--9h11-11--8h9p8-7--8p6-------||
G||-------------------------8------|------------------------8-----||
D||--------------------------------|--------------------------8---||
A||--------------------------------|------------------------------||
E||--------------------------------|------------------------------||

Please tell me how it sounds....