Misc. Unsigned Bands - Low Altitude Sickness - Raise An Objection Text Guitar Tab

Learn the song with the online tablature player
                             RAISE AN OBJECTION - Low Altitude Sickness

intro
Guitar 1:
e|----------------|----------------|----------------|----------------|
B|----------------|----------------|----------------|----------------|
G|----------------|----------------|----------------|----------------|
D|----------------|----------------|----------------|----------------|
A|-2-2-2-2-7-7-9-9|1111111111111111|-2-2-2-2-7-7-9-9|1111111111111111|
E|-0-0-0-0-0-0-0-0|-0-0-0-0-0-0-0-0|-0-0-0-0-0-0-0-0|-0-0-0-0-0-0-0-0|

e|----------------|----------------|----------------|----------------|
B|----------------|----------------|----------------|----------------|
G|----------------|----------------|----------------|----------------|
D|----------------|-2-2-2-2-2-2-2-2|-4-4-4-4-4-4-4-4|-2-2-2-2-2-2-2-2|
A|-2-2-2-2-2-2-2-2|-0-0-0-0-0-0-0-0|-2-2-2-2-2-2-2-2|-0-0-0-0-0-0-0-0|
E|-0-0-0-0-0-0-0-0|----------------|----------------|----------------|

Guitar 2: (tacit)

Guitar 1:
e|----------------|----------------|----------------|----------------|
B|----------------|----------------|----------------|----------------|
G|----------------|----------------|----------------|----------------|
D|----------------|----------------|----------------|----------------|
A|-2-2-2-2-7-7-9-9|1111111111111111|-2-2-2-2-7-7-9-9|1111111111111111|
E|-0-0-0-0-0-0-0-0|-0-0-0-0-0-0-0-0|-0-0-0-0-0-0-0-0|-0-0-0-0-0-0-0-0|

e|----------------|----------------|----------------|----------------|
B|----------------|----------------|----------------|----------------|
G|----------------|----------------|----------------|----------------|
D|----------------|-2-2-2-2-2-2-2-2|-4-4-4-4-4-4-4-4|-2-2-2-2-2-2-2-2|
A|-2-2-2-2-2-2-2-2|-0-0-0-0-0-0-0-0|-2-2-2-2-2-2-2-2|-0-0-0-0-0-0-0-0|
E|-0-0-0-0-0-0-0-0|----------------|----------------|----------------|

Guitar 2:
e|----------------|----------------|----------------|----------------|
B|----------------|----------------|----------------|----------------|
G|----------------|----------------|----------------|----------------|
D|----------------|----------------|----------------|----------------|
A|----------------|----------------|----------------|----------------|
E|----------------|----------------|----------------|----------------|

e|----------------|----------------|----------------|----------------|
B|----------------|----------------|----------------|----------------|
G|-9-9-9-9-9-9-9-9|1111111111111111|1616161616161616|1414141414141414|
D|-x-x-x-x-x-x-x-x|-x-x-x-x-x-x-x-x|-x-x-x-x-x-x-x-x|-x-x-x-x-x-x-x-x|
A|-7-7-7-7-7-7-7-7|-9-9-9-9-9-9-9-9|1414141414141414|1212121212121212|
E|----------------|----------------|----------------|----------------|

verse 1

e|----------------|----------------|----------------|----------------|
B|----------------|----------------|----------------|----------------|
G|----------------|----------------|----------------|----------------|
D|---6-6-6---6-6-6|---6-6-6---6-6-6|---7-7-7---7-7-7|---7-7-7---7-7-7|
A|-7-7-7-7-7-7-7-7|-7-7-7-7-7-7-7-7|-7-7-7-7-7-7-7-7|-7-7-7-7-7-7-7-7|
E|-7-------7------|-7-------7------|-5-------5------|-5-------5------|

prechorus 1
Guitar 1:
e|----------------|----------------|----------------|----------------|
B|----------------|----------------|----------------|----------------|
G|-----------4-0--|-----------6-0--|-----------4-0--|-----------2-0--|
D|-5-5-5-5-5------|-7-7-7-7-7------|-5-5-5-5-5------|-3-3-3-3-3------|
A|----------------|----------------|----------------|----------------|
E|----------------|----------------|----------------|----------------|

Guitar 2:
e|----------------|----------------|----------------|----------------|
B|----------------|----------------|----------------|----------------|
G|----------------|----------------|----------------|----------------|
D|-5-5-5-5-5-5-5-5|-7-7-7-7-7-7-7-7|-5-5-5-5-5-5-5-5|-3-3-3-3-3-3-3-3|
A|-3-3-3-3-3-3-3-3|-5-5-5-5-5-5-5-5|-3-3-3-3-3-3-3-3|-1-1-1-1-1-1-1-1|
E|----------------|----------------|----------------|----------------|
PM----------------|----------------|----------------|----------------|

chorus 1

e|----------------|----------------|----------------|----------------|
B|----------------|----------------|----------------|----------------|
G|-5---5---5-5----|---------9-9-8-8|-5---5---5-5----|---------9-9-8-8|
D|-5---5---5-5-6--|-6---666-9-9-9-9|-5---5---5-5-6--|-6---6-6-9-9-9-9|
A|-3---3---3-3-6--|-6---666-7-7-6-6|-3---3---3-3-6--|-6---6-6-7-7-6-6|
E|-------------4--|-4---444--------|-------------4--|-4---4-4--------|

e|----------------|----------------|----------------|----------------|
B|----------------|----------------|----------------|----------------|
G|-8-8---8-8-8-8-8|----------------|----------------|----------------|
D|-9-9---9-9-9-9-9|-6---6-6-6-6-6-6|-2-2-2-2-2-2-2-2|-6---6-6-6-6-6-6|
A|-6-6---6-6-6-6-6|-4---4-4-4-4-4-4|-0-0-0-0-0-0-0-0|-4---4-4-4-4-4-4|
E|----------------|----------------|----------------|----------------|

e|----------------|
B|----------------|
G|----------------|
D|-2-2-2-2-2-2-2-2|
A|-0-0-0-0-0-0-0-0|
E|----------------|

preverse:
Guitar 1:
e|----------------|----------------|----------------|----------------|
B|----------------|----------------|----------------|----------------|
G|----------------|----------------|----------------|----------------|
D|----------------|----------------|----------------|----------------|
A|-2-2-2-2-7-7-9-9|1111111111111111|-2-2-2-2-7-7-9-9|1111111111111111|
E|-0-0-0-0-0-0-0-0|-0-0-0-0-0-0-0-0|-0-0-0-0-0-0-0-0|-0-0-0-0-0-0-0-0|

e|----------------|----------------|----------------|----------------|
B|----------------|----------------|----------------|----------------|
G|----------------|----------------|----------------|----------------|
D|----------------|-2-2-2-2-2-2-2-2|-4-4-4-4-4-4-4-4|-2-2-2-2-2-2-2-2|
A|-2-2-2-2-2-2-2-2|-0-0-0-0-0-0-0-0|-2-2-2-2-2-2-2-2|-0-0-0-0-0-0-0-0|
E|-0-0-0-0-0-0-0-0|----------------|----------------|----------------|

Guitar 2:
e|----------------|----------------|----------------|----------------|
B|----------------|----------------|----------------|----------------|
G|----------------|----------------|----------------|----------------|
D|----------------|----------------|----------------|----------------|
A|----------------|----------------|----------------|----------------|
E|----------------|----------------|----------------|----------------|

e|----------------|----------------|----------------|----------------|
B|----------------|----------------|----------------|----------------|
G|-9-9-9-9-9-9-9-9|1111111111111111|1616161616161616|1818181818181818|
D|-x-x-x-x-x-x-x-x|-x-x-x-x-x-x-x-x|-x-x-x-x-x-x-x-x|-x-x-x-x-x-x-x-x|
A|-7-7-7-7-7-7-7-7|-9-9-9-9-9-9-9-9|1414141414141414|1616161616161616|
E|----------------|----------------|----------------|----------------|

verse 2

e|----------------|----------------|----------------|----------------|
B|----------------|----------------|----------------|----------------|
G|----------------|----------------|----------------|----------------|
D|---6-6-6---6-6-6|---6-6-6---6-6-6|---9-9-9---9-9-9|---9-9-9---9-9-9|
A|-7-7-7-7-7-7-7-7|-7-7-7-7-7-7-7-7|-9-9-9-9-9-9-9-9|-9-9-9-9-9-9-9-9|
E|-7-------7------|-7-------7------|-7-------7------|-7-------7------|

prechorus 2
Guitar 1:
e|----------------|----------------|----------------|----------------|
B|----------------|----------------|----------------|----------------|
G|-----------4-0--|-----------6-0--|-----------4-0--|-----------2-0--|
D|-5-5-5-5-5------|-7-7-7-7-7------|-5-5-5-5-5------|-3-3-3-3-3------|
A|----------------|----------------|----------------|----------------|
E|----------------|----------------|----------------|----------------|

e|----------------|----------------|----------------|----------------|
B|-------------0--|-------------0--|-------------0--|-------------0--|
G|-----------4----|-----------6----|-----------4----|-----------2----|
D|-5-5-5-5-5------|-7-7-7-7-7------|-5-5-5-5-5------|-3-3-3-3-3------|
A|----------------|----------------|----------------|----------------|
E|----------------|----------------|----------------|----------------|

Guitar 2:
e|----------------|----------------|----------------|----------------|
B|----------------|----------------|----------------|----------------|
G|----------------|----------------|----------------|----------------|
D|-5-5-5-5-5-5-5-5|-7-7-7-7-7-7-7-7|-5-5-5-5-5-5-5-5|-3-3-3-3-3-3-3-3|
A|-3-3-3-3-3-3-3-3|-5-5-5-5-5-5-5-5|-3-3-3-3-3-3-3-3|-1-1-1-1-1-1-1-1|
E|----------------|----------------|----------------|----------------|
PM----------------|----------------|----------------|----------------|

e|----------------|----------------|----------------|----------------|
B|----------------|----------------|----------------|----------------|
G|----------------|----------------|----------------|----------------|
D|-5-5-5-5-5-5-5-5|-7-7-7-7-7-7-7-7|-5-5-5-5-5-5-5-5|-3-3-3-3-3-3-3-3|
A|-3-3-3-3-3-3-3-3|-5-5-5-5-5-5-5-5|-3-3-3-3-3-3-3-3|-1-1-1-1-1-1-1-1|
E|----------------|----------------|----------------|----------------|
PM----------------|----------------|----------------|----------------|

chorus 2

e|----------------|----------------|----------------|----------------|
B|----------------|----------------|----------------|----------------|
G|-5---5---5-5----|---------9-9-8-8|-5---5---5-5----|---------9-9-8-8|
D|-5---5---5-5-6--|-6---666-9-9-9-9|-5---5---5-5-6--|-6---6-6-9-9-9-9|
A|-3---3---3-3-6--|-6---666-7-7-6-6|-3---3---3-3-6--|-6---6-6-7-7-6-6|
E|-------------4--|-4---444--------|-------------4--|-4---4-4--------|

e|----------------|----------------|----------------|----------------|
B|----------------|----------------|----------------|----------------|
G|-8-8---8-8-8-8-8|----------------|----------------|----------------|
D|-9-9---9-9-9-9-9|-6---6-6-6-6-6-6|-2-2-2-2-2-2-2-2|-6---6-6-6-6-6-6|
A|-6-6---6-6-6-6-6|-4---4-4-4-4-4-4|-0-0-0-0-0-0-0-0|-4---4-4-4-4-4-4|
E|----------------|----------------|----------------|----------------|

e|----------------|
B|----------------|
G|----------------|
D|-2-2-2-2-2-2-2-2|
A|-0-0-0-0-0-0-0-0|
E|----------------|

bridge

e|----------------|----------------|----------------|----------------|
B|----------------|----------------|----------------|----------------|
G|----------------|----------------|----------------|----------------|
D|-----2~--4~--6~-|-5-5-5-5-5-5-5-5|-7-7-7-7-7-7-7-7|-5-5-5-5-5-5-5-5|
A|-2~--0~--2~--4~-|-3-3-3-3-3-3-3-3|-5-5-5-5-5-5-5-5|-3-3-3-3-3-3-3-3|
E|-0~-------------|----------------|----------------|----------------|

e|----------------|----------------|----------------|----------------|
B|----------------|----------------|----------------|----------------|
G|----------------|----------------|----------------|----------------|
D|-3-3-3-3-3-3-3-3|-5-5-5-5-5-5-5-5|-7-7-7-7-7-7-7-7|-5-5-5-5-5-5-5-5|
A|-1-1-1-1-1-1-1-1|-3-3-3-3-3-3-3-3|-5-5-5-5-5-5-5-5|-3-3-3-3-3-3-3-3|
E|----------------|----------------|----------------|----------------|

e|----------------|
B|----------------|
G|----------------|
D|-3-3-3-3-3-3-3-3|
A|-1-1-1-1-1-1-1-1|
E|----------------|

mini riff-thing:
Guitar1:
e|----------------|----------------|----------------|----------------|
B|----------------|----------------|----------------|----------------|
G|----------------|----------------|121212101010-9-9|-7-7-7-7-7-7-7-7|
D|----------------|----------------|----------------|----------------|
A|-5-5-5-7-7-7-9-9|-5-5-5-7-7-7-9-9|----------------|----------------|
E|----------------|----------------|----------------|----------------|

e|----------------|----------------|----------------|----------------|
B|----------------|----------------|----------------|----------------|
G|----------------|----------------|-----------4-0--|-----------2-0--|
D|-5-5-5-7-7-7-9-9|-7-7-7-9-9-9-5-5|-5-5-5-5-5------|-3-3-3-3-3------|
A|----------------|----------------|----------------|----------------|
E|----------------|----------------|----------------|----------------|

Guitar 2: (repeat bridge)

final chorus:

e|----------------|----------------|----------------|----------------|
B|----------------|----------------|----------------|----------------|
G|-5---5---5-5----|---------9-9-8-8|-5---5---5-5----|---------9-9-8-8|
D|-5---5---5-5-6--|-6---666-9-9-9-9|-5---5---5-5-6--|-6---6-6-9-9-9-9|
A|-3---3---3-3-6--|-6---666-7-7-6-6|-3---3---3-3-6--|-6---6-6-7-7-6-6|
E|-------------4--|-4---444--------|-------------4--|-4---4-4--------|

e|----------------|----------------|----------------|----------------|
B|----------------|----------------|----------------|----------------|
G|-8-8---8-8-8-8-8|----------------|----------------|----------------|
D|-9-9---9-9-9-9-9|-6---6-6-6-6-6-6|-2-2-2-2-2-2-2-2|-6---6-6-6-6-6-6|
A|-6-6---6-6-6-6-6|-4---4-4-4-4-4-4|-0-0-0-0-0-0-0-0|-4---4-4-4-4-4-4|
E|----------------|----------------|----------------|----------------|

e|----------------|----------------|----------------|
B|----------------|----------------|----------------|
G|----------------|----------------|----------------|
D|-2-2-2-2-2-2-2-2|-6---6-6-6-6-6-6|-2-2-2-2-2-2-2-2|
A|-0-0-0-0-0-0-0-0|-4---4-4-4-4-4-4|-0-0-0-0-0-0-0-0|
E|----------------|----------------|----------------|

outro
(x2)

e|----------------|----------------|----------------|----------------|
B|----------------|----------------|----------------|----------------|
G|----------------|----------------|----------------|----------------|
D|----------------|----------------|----------------|----------------|
A|-2-2-2-2-7-7-9-9|1111111111111111|-2-2-2-2-7-7-9-9|1111111111111111|
E|-0-0-0-0-0-0-0-0|-0-0-0-0-0-0-0-0|-0-0-0-0-0-0-0-0|-0-0-0-0-0-0-0-0|

e|----------------|----------------|----------------|----------------|
B|----------------|----------------|----------------|----------------|
G|----------------|----------------|----------------|----------------|
D|----------------|-9-9-9-9-7-7-7-7|----------------|-7-7-7-7-2-2-2-2|
A|12121212-9-9-9-9|-0-0-0-0-0-0-0-0|12121212-9-9-9-9|-0-0-0-0-0-0-0-0|
E|-0-0-0-0-0-0-0-0|----------------|-0-0-0-0-0-0-0-0|----------------|

                                  END

| /   slide up
| \   slide down
| h   hammer-on
| p   pull-off
| ~   vibrato
| +   harmonic
| x   Mute note
| b   Bend
| pb  Pre-bend
| br  Bend release
| pbr Pre-bend release
| brb Bend release bend