Misc. Unsigned Bands - Low Rider - Low Rider Text Guitar Tab

Learn the song with the online tablature player
e|-0-------------------0---------------------|
B|---1-------------------1-------------------|
G|-----2-0-2-2-2-2---------2------2---2------|
D|----------------------------2-2---2---2----|
A|-------------------------------------------|
E|-------------------------------------------|(2 times)

e|-------------0--------------------------------------|
B|-2-2-2-2-2-3-----2-3-2------------------------------|
G|---------------2-------2----0(x5)-0(x5)-0(x5)-0-0-2-|
D|----------------------------------------------------|
A|----------------------------------------------------|
E|----------------------------------------------------|