Misc. Unsigned Bands - Luan Santana - To De Cara Text Guitar Tab

Learn song with the online tabulature player
Whole Song
(F,C9,Dm7,Bb9)

1st Solo
e|----------------------|
b|-6-6-6-6--------------|
g|-5-5-5-5-3-2-0--------|
d|----------------------|
a|----------------------|
e|----------------------|

e|----------------------|
b|----------------------|
g|-6/7-7-7-5-3-2--------|
d|-7/8-8-8-7-5-3--------|
a|----------------------|
e|----------------------|

e|--------------------------|
b|-6-6-6-6-5-5-3-3----------|
g|-5-5-5-5-5-5-3-3-5-5-3-5--|
d|-----------------7-7-5-7--|
a|--------------------------|
e|--------------------------|

e|--------------------------|
b|-1-3-1-3-1-3-1------------|
g|-2-3-2-3-2-3-2-3-2--------|
d|---------------5-3--------|
a|--------------------------|
e|--------------------------|


Solo2 
(F,C9,Bb9)

e|----------------------|
b|-6-6-6-6--------------|
g|-5-5-5-5-3-2-0--------|
d|----------------------|
a|----------------------|
e|----------------------|

e|----------------------|
b|----------------------|
g|-6/7-7-7-5-3-2--------|
d|-7/8-8-8-7-5-3--------|
a|----------------------|
e|----------------------|

e|--------------|
b|--------------|
g|-2-3--6/7-----|
d|-3-3--7/8-----|
a|--------------|
e|--------------|