Misc. Unsigned Bands - Lullatone - Hello Kitty Makes A Band Text Guitar Tab

Learn the song with the online tablature player
Riff 1

tip : barre the C chord in an F shape. like playing an F chord except you barre it
at the 8th fret. let me show you lol.

e|---8-------|
B|---8-------|
G|---9-------|
D|---10------|
A|---10------|
E|---8-------|

Riff 1

e|------------------------------------------------------------------------|
B|------------------------------------------------------------------------|
G|--------------------99--------------------------------------------------|
D|-------1010-------------------------------------------------------------|
A|-------------1010-------------------------------------------------------|
E|---88-------------------------------------------------------------------|

riff 2

e|----8-------------------------------------------------------------------|
B|-----8-------8----------------------------------------------------------|
G|----------9-------------------------------------------------------------|
D|----------------10------------------------------------------------------|
A|------------------------------------------------------------------------|
E|------------------------------------------------------------------------|