Misc. Unsigned Bands - Lysdexic - Lesbian Haircut Text Guitar Tab

Learn song with the online tabulature player
----------------------|
----------------------|
-----5---3---8--------|
-----5---3---8---5----|The Whole Song (minus the interlude)
-----3---1---6---5----|
-----------------3----|

LYRICS

at beginning: This Songs for ?????

I Want A Lesbian Haircut,
Just like the One My Sister Got
And If I Get That Haircut,
I'll Get All The Chicks Like Shes Got

Yeah Lesbian Haircut

(thats all of the lyrics just repeated)

Bass Line: (Entire Song)

------5----5------3----3------8----8----------------|
-------------------------------------------5-----5--|
----3----3------1----1------6----6------------------|
-----------------------------------------3-----3----|

This is a great band from Spokane WA. Got a demo at one of their recent shows. Probably 
know the song.