Misc. Unsigned Bands - Mac - Good Enough Text Guitar Tab

Learn song with the online tabulature player
GOOD ENOUGH by MAC
                     From The Album ACOUSTIC BREAK
         (Available only in the Philippines. Please buy, people!)


Guitar transcription by Nathan Gilera Hayag, RRT

Comments, suggestions, corrections & violent reactions...
E-mail me at nathanhayag@gmail.com

*** This song was composed by a friend of mine. I took the liberty of tabbing it and 
it on the net because who knows, this song might end up making it to the top. Well, I hope 
would because I created this song's intro and lead part! Hehehe.. Some dreamer..

STANDARD TUNING ( E A D G B e )

CHORDS :   AM7  - x02120
           C#m7 - x46454
           F#m  - 244222
           E    - 022100

INTRO :
          AM7           ~~~~        C#m7               ~~~~~
--------------------------------------------------------------|
--------------------------------------------------------------|
--------------------------------------------------------------|
-------------------------------------------------9/11-9-------|
------7h9-9/11-12-11-7----------7h9-9/11-12-11-7--------------|
--7h9------------------9----7h9-------------------------------|

   F#m              ~~~~  E                 ~~~~~~~
--------------------------------------------------------------|
--------------------------------------------------------------|
--9-8-8h9p8---------------------------------------------------|
------------9--7-7/9---------7-6-----6-7-7/9-------(9)--------|
---------------------------------9-7--------------------------|
--------------------------------------------------------------|

VERSE :
AM7             C#m7  AM7                     C#m7
The moment I saw you, couldn't get you off my mind.
AM&                         C#m7   AM7                    C#m7
I've found my dream becoming true, didn't know that I was blind.

PRE-CHORUS :
F#m
But now I know I'm wrong, I can't go on.
E
I've fallen hard this time.

CHORUS :
               AM7                                  C#m7
Guess I wasn't good enough for you. Did my best and all that I can do.
      F#m                           E
I was wishing all the time that someday you will be mine.
               AM7                                    C#m7
Guess I wasn't good enough for you. Now my dreams are far from coming true.
      F#m                               E
All I do is hope and pray that I'll get over you someday.

VERSE :
AM7                       C#m7   AM7                    C#m7
Now with all those lonely nights, I was crying all the time.
AM7                       C#m7  AM7                             C#m7
All my thoughts were about you, thought I've found a love that's true.

PRE-CHORUS :
F#m
But now I know I'm wrong, I can't go on.
E
I've fallen hard this time.

CHORUS :
               AM7                                  C#m7
Guess I wasn't good enough for you. Did my best and all that I can do.
      F#m                           E
I was wishing all the time that someday you will be mine.
               AM7                                    C#m7
Guess I wasn't good enough for you. Now my dreams are far from coming true.
      F#m                               E
All I do is hope and pray that I'll get over you someday.

BRIDGE :
AM7
Now I know I'm all alone,
C#m7                              F#m          E
I know I have to carry on without you. Without you.
AM7
Eventhough I know I'm not that strong,
C#m7                                   F#m          E
I face this life now on my own without you. Without you, Ohh...

GUITAR SOLO :
          AM7            ~~~~~     C#m7          ~~~       F#m
---------------------------------------------------------------|
-------------------------------9h10-9------------------9h10-9--|
---------------9--11p9-11-------------9----9h11-9--------------|
------7h9-9/11--------------------------11----------11---------|
--7h9----------------------------------------------------------|
---------------------------------------------------------------|

             ~~~~~ E                          AM7
---------------------------------------------------------------|
-------------------------------------------------10---12-10----|
--9----9h11-9------9-7-6---6-7-7/9--(9)\------/9----9-------9--|
----11-------------------9-------------------------------------|
---------------------------------------------------------------|
---------------------------------------------------------------|

       C#m7           F#m                         E          ~~~~
----------------------12--10--12------------------12/14----12----|
----12-12/14----14---------------12/14-10-10---10----------------|
--9------------------------------------------9-------------------|
-------------14-----------------------------------------14-------|
-----------------------------------------------------------------|
-----------------------------------------------------------------|

CHORUS :
               AM7                                  C#m7
Guess I wasn't good enough for you. Did my best and all that I can do.
      F#m                           E
I was wishing all the time that someday you will be mine.
               AM7                                    C#m7
Guess I wasn't good enough for you. Now my dreams are far from coming true.
      F#m                               E                 AM7 (pause)
All I do is hope and pray that I'll get over you someday, Ooohh...


ANIMO LA SALLE!

~§^{bÂnÂnÂts}^§~