Misc. Unsigned Bands - Magic Bullet - In My Head Text Guitar Tab

Learn the song with the online tablature player
              IN MY HEAD - Magic Bullet
Album - More Than This

VERSE

e|--------------------7----------5-------------|
B|-5---5H7/8---8---5H7----5---3H5----3---3H5/7-|
G|--0-0---------0-0--------0-0--------0-0------|
D|---------------------------------------------|
A|-7-7---------5-5--------3-3--------5-5-------|
E|---------------------------------------------|

PRE-CHORUS
                  __________  _____________
                      |1      |2
e|-------------------------------------------------5p0----|-0-------------|
B|----12---10--13---7H8--8/10\8-7h8/5---5/7-7-----0----5--|-5-------------|
G|---0--0-----0--0-----0---------------0-----0---0------0-|-0-------------|
D|--------------------------------------------------------|-5-------------|
A|-10------9--------7---7-------------3----5----7-----7---|-7-------------|
E|--------------------------------------------------------|-0-------------|

CHORUS
Em   D   C   D

BRIDGE
4/4
                                                            Em
e|---------------------------------------------------------------------------|
B|---------------------------------------------------------------------------|
G|---------------------------------------------------------------------------|
D|---------------------------------------------------------------------------|
A|-7-7-7-7h9p7-7-10-9-5-x-5-5/7--7-7-7-7h9p7-7-7/5-5/3-3/5-5-5/7-------------|
E|-0-0-0-0-----0-0--0-0-x-0-0----0-0-0-0-----0-0---0---0---0-0---------------|

6/8
            _________ _______________
           |1       |2
e|---------------------------------|-----------------|
B|---------------------------------|------0----------|
G|------0-----2-0-----4-0-----2-0--|----2------------|
D|--5-7-----4-------2-------2------|--2--------------|
A|-7-7-7---5-5-5---3-3-3---3-3-3---|-3-3-3-----------|
E|---------------------------------|-----------------|

| /  slide up
| \  slide down
| h  hammer-on