Misc. Unsigned Bands - Make Good Your Escape - New Day Text Guitar Tab

Learn song with the online tabulature player
-------------------------------------------------------------------------------
                             New Day - Make Good Your Escape
-------------------------------------------------------------------------------
Tabbed by:hate 248
Email:blueshika48@yahoo.com

Tuning:standard

im just suprised nobody posted any songs from this band,if u read this then please say somthing

this part uses a slow swell effect
e|-5------------5------------5------------5------|
B|-6------------5------------6------------5------|
G|-7------------7------------7------------7------|
D|-----------------------------------------------|
A|-----------------------------------------------|
E|-----------------------------------------------|

e|-------5------------7------------------------------------------------------|
B|--6--6--6--6---6--6--6--6-----5--5--6---5-5--6-----------------------------|
G|-7--7----7------7-----7--------7--7------7-7-------------------------------|
D|---------------------------------------------------------------------------|
A|---------------------------------------------------------------------------|
E|---------------------------------------------------------------------------|


thats all i got now