Misc. Unsigned Bands - Maple Street - Living Fast Dying Young Text Guitar Tab

Learn the song with the online tablature player
Intro/Chorus:
GUITAR 1
G  D  B  A    2TIMES

GUITAR 2
Slide G  D  B  A 2 TIMES
Hold A For 16 Beats

Verse
    A 7th                             B 7th
E|---5---------------------------------7---------------------|
A|---8-Alternate with 8th and 7th fret-10-Alternate with 10--|th and 9th fret
D|---6---------------------------------8---------------------|
G|---5---------------------------------7---------------------|
B|---7---------------------------------9---------------------|
E|---5---------------------------------7---------------------|
                                                   HOLD B 7th FOR 16 BEATS
*REPEAT WHOLE INTRO/CHORUS WITH BOTH GUITARS
*REPEAT VERSE
*REPEAT WHOLE INTRO/CHORUS WITH BOTH GUITARS
OVER THE INTRO GUITAR TWO PLAYS THE FIRST SOLO
E|--------------------------------------------3-6-6B-3--------------------|
A|-----------------------------------------3-6---------6B-3---------------|
D|-------------------------------------3-5------------------5B-3----------|
G|---------------------------------3-5---------------------------5VIBRATO-|
B|--10--------10---------------3-5----------------------------------------|
E|-----10-7-5----10-7-5-----3-6-------------------------------------------|

E|------------------------------------------------------------------------|
A|------------------------------------------------------------------------|
D|----3-5-5BPULLOFF!-3----------3-5-5BPULLOFF!-3------------3-------------|MIGHTY BENDS
G|--5------------------5VIBRATO------------------5VIBRATO-5---------------|
B|------------------------------------------------------------------------|
E|------------------------------------------------------------------------|

E|--6-6B-3--------------------5-HOLD FOR 16-------| BEATS
A|---------6B-3---------------5-------------------|
D|--------------5B-3----------6-------------------|
G|-------------------5VIBRATO-7-------------------|
B|----------------------------7-------------------|
E|----------------------------5-------------------|