Misc. Unsigned Bands - Matt Steele K And I Band - I Stole Your Cd Text Guitar Tab

Learn the song with the online tablature player
BAND : Matt Steele K and I Band
SONG : I Stole Your CD

please put in my "misc songs" page!

here is one of my own songs

|-------------------------------------------
|-------------------------------------------
|----------4~xxxx---------------------------
|-4~xxxx---4~xxxx---4~xxxx---6~~------------
|-4~xxxx---2~xxxx---4~xxxx---6~~------------
|-2~xxxx------------2~xxxx---4~~------------

|---------------------------------
|---------------------------------
|-----------4-4-44444-------------
|-4-4-44444-4-4-44444-4-4-44444-6~
|-4-4-44444-2-2-22222-4-4-44444-6~
|-2-2-22222-----------2-2-22222-4~