Misc. Unsigned Bands - Mayo-3 - Leaving Text Guitar Tab

Learn song with the online tabulature player
Mayo-3_-_Leaving

e|--------------------------------------------------------|
b|--------------------------------------------------------|
g|---------0-------------0-------------0-----------0------|
d|-----0-------0-----0-------0------0------0---0--------0-|
a|---7---7---7-----9---9---9-----5---5---5---5---5----5---|
e|--------------------------------------------------------|

   ----------------------------------|
   ----------------------------------|
   ---------0-------------0----------|
   -----0-------0-----0-------0------|
   ---7---7---7-----9---9---9-----5--|
   ----------------------------------|



http://www.myspace.com/mayo3hagen