Misc. Unsigned Bands - Mcp - Penis Lunch Text Guitar Tab

Learn the song with the online tablature player
Drop D:
EBGDAD

TAB IN DROP C:

... = Palm Mute
~ = vibrato

Part I:
Played 4 times:
|---------------------------------------------------------------------------|
|---------------------------------------------------------------------------|
|---------------------------------------------------------------------------|
|-4-4-9---4-4-7-------------------------------------------------------------|
|-4-4-9---4-4-7-------------------------------------------------------------|
|-4-4-9---4-4-7-------------------------------------------------------------|

Part II:

|---------------------------------------------------------------------------|
|---------------------------------------------------------------------------|
|---------------------------------------------------------------------------|
|-4-4-4-4-4-4-4-4-4-4-4-4-4-4-4-4-------------------------------------------|
|-4-4-4-4-4-4-4-4-4-4-4-4-4-4-4-4-------------------------------------------|
|-4-4-4-4-4-4-4-4-4-4-4-4-4-4-4-4-------------------------------------------|

Chorus
Played 4 times:
|---------------------------------------------------------------------------|
|---------------------------------------------------------------------------|
|---------------------------------------------------------------------------|
|-9999-5555-7777-4444-------------------------------------------------------|
|-9999-5555-7777-4444-------------------------------------------------------|
|-9999-5555-7777-4444-------------------------------------------------------|

Part III:

|---------------------------------------------------------------------------|
|---------------------------------------------------------------------------|
|---------------------------------------------------------------------------|
|-4-------------------------------------------------------------------------|
|-4------------------------4-4----------------------------------------------|
|-4------------------------4-4----------------------------------------------|

Part IV:
Played 2 Times:
|---------------------------------------------------------------------------|
|-7----8----10----8---------------------------------------------------------|
|--7-7--7-7---7-7--7-7------------------------------------------------------|
|---------------------------------------------------------------------------|
|---------------------------------------------------------------------------|
|---------------------------------------------------------------------------|
............................................................................

|---------------------------------------------------------------------------|
|-7----8----10----8---------------------------------------------------------|
|--7-7--7-7---7-7--7-7-7------------------------7~--------------------------|
|---------------------------------------------------------------------------|
|---------------------------------------------------------------------------|
|---------------------------------------------------------------------------|
......................

To play in Drop D just move every number down two frets.

Song Order:
Part I
Part II
Chorus
Part III
Part IV
Chorus
Solo