Misc. Unsigned Bands - Mechanical Christ - The Last Suffer Text Guitar Tab

Learn the song with the online tablature player
||Guitar I (0:13-0:18)
D||---------------------------------------------------------------------------------|
A||---------------------------------------------------------------------------------|
F||---------------------------------------------------------------------------------|
C||---------------------------------------------------------------------------------|
G||-5-------5-------8---7---10---8---7h8p7----------7h8---5h7p5---------5h7---4h5p4-|
C||-----000-----000---0---0----0---0--------8--888------8--------7--777-----7-------|
PM|-----xxx-----xxx---x---x----x---x-----------xxx------x-----------xxx-----x-------|

 ||Guitar I (0:19-024)
D||---------------------------------------------------------------------|
A||---------------------------------------------------------------------|
F||---------------------------------------------------------------------|
C||---------------------------------------------------------------------|
G||-5-------5-------8h10---10h12---8h10p8p7-----7778881010108887775554*-|
C||-----000-----000------0-------0-----------888------------------------|
PM|-----xxx-----xxx------x-------x--------------------------------------|

   Guitar I (0:25-0:31)
D||----------------------------------------------------|
A||----------------------------------------------------|
F||----------------------------------------------------|
C||-0----(0)----(0)----(0)----(0)----(0)----(0)--------|
G||-0----(0)----(0)----(0)----(0)----(0)----(0)----19\-|
C||-0----(0)----(0)----(0)----(0)----(0)----(0)----20\-|
           End Intro
Verse I
   Guitar I (0:32-0:36)
D||------------------------------------------------------------------|
A||------------------------------------------------------------------|
F||------------------------------------------------------------------|
C||------------------------------------------------------------------|
G||-5-----5---5---8---7---10---8p7------5---5---5h7------4---4---4h5-|
C||---0-0---0---0---0---0----0------8-8---8---8------7-7---7---7-----|
PM|---x-x---x---x---x---x----x------x-x---x---x------x-x---x---x-----|

   Guitar I (0:37-0:41)
D||---------------------------------------------------------------|
A||---------------------------------------------------------------|
F||---------------------------------------------------------------|
C||---------------------------------------------------------------|
G||-5-----5---5---8h12-8h12-7h10-7h10-----7778881010108887775554*-|
C||---0-0---0---0----------------------888------------------------|
PM|---x-x---x---x-------------------------------------------------|