Misc. Unsigned Bands - Mechanix - Aesma Daeva Text Guitar Tab

Learn song with the online tabulature player
Aesma Daeva - Intro


Acoustic Guitar

E|---------------------------------|
B|---------------------------------|
G|-----0----0----0----0-----0----0~|
D|----4----5----7----9----10---11--|
A|---2----3----5----7----8----9----|
E|--0----0----0----0----0----0-----|

Electric Guitar

E|--------------------------------|
B|--------------------------------|
G|--------------------------------|
D|-2/ PICK SCRAPE-----------------|
A|-2/-----------------------------|
E|--------------------------------|

E|---------------------------------------------------------------------|
B|---------------------------------------------------------------------|
G|----------------------------------3-3-3-3----------------------------|
D|-2-3---3-3-3-3---2~----2---2---2-3-3-3-3-3-3-3-3--3--3--3--3--3--3/2~|
A|-2-3---3-3-3-3---2~--1---1-2-1---1-1-1-1-3-3-3-3--3--3--3--3--3--3/2~|
E|-0-1---1-1-1-1---0~--------0-------------1-1-1-1--1--1--1--1--1--1/0~|