Misc. Unsigned Bands - Melodic Alexia - Dress To Impress Text Guitar Tab

Learn the song with the online tablature player
Melodic Alexia
  Dress to Impress
  Debut E.P
  Making Out Your Someone Else

Intro
  guitar 1/
     -0-0-0-0-0-0-5-5-3-3-0-0-0-0-0-0-5-5-3-3-0 x10
  guitar 2/
     -0-0-0-0-0-7-7-10-0-7-10-0-0-0-0-0-0-0-7-7-10-0 x10

Verse
   guitar 1/

      -0-0-0-0-0-0-0-0-0-0-0-0-0-0-0-0-0-0-0-0-0-|
      -0-0-0-0-0-0-0-0-0-0-0-0-0-0-0-0-0-0-0-0-0-|
      -0-0-0-0-0-0-0-0-0-0-0-0-0-0-0-0-0-0-0-0-0-|
      -7-7-7-7-3-3-3-3-0-0-0-0-0-0-0-0-0-0-0-0-0-|
      -7-7-7-7-3-3-3-3-0-0-0-0-0-0-0-0-0-0-0-0-0-|
      -7-7-7-7-3-3-3-3-0-0-7-7-10-7-0-0-7-10-7-0-|   till chorus

   guitar 2  ==== same x 2

    then
      -0 -0-0-0-0-0-0-0-0-0-0-0-0-0-0-0-0-0-0-0-0---|
      -0 -0-0-0-0-0-0-0-0-0-0-0-0-0-0-0-0-0-0-0-0---|
      -10-10-10-5-5-5-5-0-0-3-2-5-3-0-0-0-0-0-0-0-0-|
      -7 -7-7-7-3-3-3-3-0-0-0-0-0-0-0-0-0-0-0-0-0---|
      -7 -7-7-7-3-3-3-3-0-0-0-0-0-0-0-0-0-0-0-0-0---|
      -7 -7-7-7-3-3-3-3-0-0-0-0-0-0-0-0-0-0-0-0-0---|

Chorus

     Both guitars/

     -0-0-0-0-0-0-0-0-0----------|
     -0-0-0-0-0-0-0-0-0----------|
     -0-0-0-0-0-0-0-0-0----------|
     -3-3-3-3-5-5-5-5-7-7-7-7----|
     -3-3-3-3-5-5-5-5-7-7-7-7----|
     -3-3-3-3-5-5-5-5-7-7-7-7-10-|  same

    riff during chorus

    -0-0-0-0-0-|
    -0-0-0-0-0-|
    -0-0-0-0-0-|
    -5-5-5/3/3-|

VERSE
              REPEAT

CHORUS
              REPEAT

 OUTRO

     End of verse riff with start of chorus

 Thanks melodic fans

     MELODIC-ALEXIA-TABS