Misc. Unsigned Bands - Mentally Nsane - Demines Live Forever Text Guitar Tab

Learn the song with the online tablature player
strum the strings dont pick or pull or whatever you people do!

Intro
e-0-0-0-0-0-0-0-0-0-0-0-0-0-0-|
b-0-0-0-0-0-0-0-0-0-0-0-0-0-0-|
g-1-1-1-1-1-1-1-1-1-1-1-1-1-1-|
d-2-2-2-2-2-2-2-2-2-2-2-2-2-2-|
a-----------------------------|
E-----------------------------|

e-0-0-0-0-0-0-0-0-0-0-0-0-0-0-|
b-1-1-1-1-1-1-1-1-1-1-1-1-1-1-|
g-2-2-2-2-2-2-2-2-2-2-2-2-2-2-|
d-----------------------------|
a-----------------------------|
E-----------------------------|

e-0-0-0-0-0-0-0-0-0-0-0-0-0-0-|
b-3-3-3-3-3-3-3-3-3-3-3-3-3-3-|
g-4-4-4-4-4-4-4-4-4-4-4-4-4-4-|
d-----------------------------|
a-----------------------------|
E-----------------------------|
intro end.

e-0-0-0-0-0-0-0-0-|
b-0-0-0-0-0-0-0-0-|
g-0-0-0-0-0-0-0-0-|
d-----------------|
a-----------------|
E-----------------|

e-0-0-0-0-0-0-0-0-0-0-0-0-0-0-|
b-1-1-1-1-1-1-1-1-1-1-1-1-1-1-|
g-2-2-2-2-2-2-2-2-2-2-2-2-2-2-|
d-----------------------------|
a-----------------------------|
E-----------------------------|

e-0-0-0-0-0-0-0-0-0-0-0-0-0-0-|
b-0-0-0-0-0-0-0-0-0-0-0-0-0-0-|
g-0-0-0-0-0-0-0-0-0-0-0-0-0-0-|
d-----------------------------|
a-----------------------------|
E-----------------------------|

e-0-0-0-0-0-0-0-0-0-0-0-0-0-0-|
b-1-1-1-1-1-1-1-1-1-1-1-1-1-1-|
g-2-2-2-2-2-2-2-2-2-2-2-2-2-2-|
d-----------------------------|
a-----------------------------|
E-----------------------------|

e-0-0-0-0-0-0-0-0-0-0-0-0-0-0-|
b-0-0-0-0-0-0-0-0-0-0-0-0-0-0-|
g-0-0-0-0-0-0-0-0-0-0-0-0-0-0-|
d-----------------------------|
a-----------------------------|
E-----------------------------|

e-0-0-0-0-0-0-0-0-|
b-1-1-1-0-1-0-1-1-|
g-2-2-2-2-2-2-2-2-|
d-----------------|
a-----------------|
E-----------------|

e-0-0-0-0-0-0-0-0-|
b-3-3-3-3-3-3-3-3-|
g-4-4-4-4-4-4-4-4-|
d-----------------|
a-----------------|
E-----------------|

e-0-0-0-0-0-0-0-0-|
b-0-0-0-0-0-0-0-0-|
g-0-0-0-0-0-0-0-0-|
d-----------------|
a-----------------|
E-----------------|

e-0-0-0-0-0-0-0-0-0-0-0-0-0-0-|
b-1-1-1-1-1-1-1-1-1-1-1-1-1-1-|
g-2-2-2-2-2-2-2-2-2-2-2-2-2-2-|
d-----------------------------|
a-----------------------------|
E-----------------------------|

e-0-0-0-0-0-0-0-0-0-0-0-0-0-0-|
b-0-0-0-0-0-0-0-0-0-0-0-0-0-0-|
g-0-0-0-0-0-0-0-0-0-0-0-0-0-0-|
d-----------------------------|
a-----------------------------|
E-----------------------------|

e-0-0-0-0-0-0-0-0-0-0-0-0-0-0-|
b-1-1-1-1-1-1-1-1-1-1-1-1-1-1-|
g-2-2-2-2-2-2-2-2-2-2-2-2-2-2-|
d-----------------------------|
a-----------------------------|
E-----------------------------|

e-0-0-0-0-0-0-0-0-0-0-0-0-0-0-|
b-0-0-0-0-0-0-0-0-0-0-0-0-0-0-|
g-0-0-0-0-0-0-0-0-0-0-0-0-0-0-|
d-----------------------------|
a-----------------------------|
E-----------------------------|

e-0-0-0-0-0-0-0-0-0-0-0-0-0-0-|
b-1-1-1-1-1-1-1-1-1-1-1-1-1-1-|
g-2-2-2-2-2-2-2-2-2-2-2-2-2-2-|
d-----------------------------|
a-----------------------------|
E-----------------------------|

e-0-0-0-0-0-0-0-0-0-0-0-0-0-0-|
b-3-3-3-3-3-3-3-3-3-3-3-3-3-3-|
g-4-4-4-4-4-4-4-4-4-4-4-4-4-4-|
d-----------------------------|
a-----------------------------|
E-----------------------------|

e-0-0-0-0-0-0-0-0-|
b-0-0-0-0-0-0-0-0-|
g-0-0-0-0-0-0-0-0-|
d-----------------|
a-----------------|
E-----------------|

e-0-0-0-0-0-0-0-0-0-0-0-0-0-0-|
b-1-1-1-1-1-1-1-1-1-1-1-1-1-1-|
g-2-2-2-2-2-2-2-2-2-2-2-2-2-2-|
d-----------------------------|
a-----------------------------|
E-----------------------------|

e-0-0-0-0-0-0-0-0-0-0-0-0-0-0-|
b-0-0-0-0-0-0-0-0-0-0-0-0-0-0-|
g-0-0-0-0-0-0-0-0-0-0-0-0-0-0-|
d-----------------------------|
a-----------------------------|
E-----------------------------|

e-0-0-0-0-0-0-0-0-0-0-0-0-0-0-|
b-1-1-1-1-1-1-1-1-1-1-1-1-1-1-|
g-2-2-2-2-2-2-2-2-2-2-2-2-2-2-|
d-----------------------------|
a-----------------------------|
E-----------------------------|

e-0-0-0-0-0-0-0-0-0-0-0-0-0-0-|
b-0-0-0-0-0-0-0-0-0-0-0-0-0-0-|
g-0-0-0-0-0-0-0-0-0-0-0-0-0-0-|
d-----------------------------|
a-----------------------------|
E-----------------------------|

e-0-0-0-0-0-0-0-0-|
b-1-1-1-0-1-0-1-1-|
g-2-2-2-2-2-2-2-2-|
d-----------------|
a-----------------|
E-----------------|

e-0-0-0-0-0-0-0-0-|
b-3-3-3-3-3-3-3-3-|
g-4-4-4-4-4-4-4-4-|
d-----------------|
a-----------------|
E-----------------|

e-0-0-0-0-0-0-0-0-|
b-0-0-0-0-0-0-0-0-|
g-0-0-0-0-0-0-0-0-|
d-----------------|
a-----------------|
E-----------------|

e-0-0-0-0-0-0-0-0-0-0-0-0-0-0-|
b-1-1-1-1-1-1-1-1-1-1-1-1-1-1-|
g-2-2-2-2-2-2-2-2-2-2-2-2-2-2-|
d-----------------------------|
a-----------------------------|
E-----------------------------|

e-0-0-0-0-0-0-0-0-0-0-0-0-0-0-|
b-0-0-0-0-0-0-0-0-0-0-0-0-0-0-|
g-0-0-0-0-0-0-0-0-0-0-0-0-0-0-|
d-----------------------------|
a-----------------------------|
E-----------------------------|

e-0-0-0-0-0-0-0-0-0-0-0-0-0-0-|
b-1-1-1-1-1-1-1-1-1-1-1-1-1-1-|
g-2-2-2-2-2-2-2-2-2-2-2-2-2-2-|
d-----------------------------|
a-----------------------------|
E-----------------------------|

e-0-0-0-0-0-0-0-0-0-0-0-0-0-0-|
b-0-0-0-0-0-0-0-0-0-0-0-0-0-0-|
g-0-0-0-0-0-0-0-0-0-0-0-0-0-0-|
d-----------------------------|
a-----------------------------|
E-----------------------------|

e-0-0-0-0-0-0-0-0-0-0-0-0-0-0-|
b-1-1-1-1-1-1-1-1-1-1-1-1-1-1-|
g-2-2-2-2-2-2-2-2-2-2-2-2-2-2-|
d-----------------------------|
a-----------------------------|
E-----------------------------|

e-0-0-0-0-0-0-0-0-0-0-0-0-0-0-|
b-3-3-3-3-3-3-3-3-3-3-3-3-3-3-|
g-4-4-4-4-4-4-4-4-4-4-4-4-4-4-|
d-----------------------------|
a-----------------------------|
E-----------------------------|

e-0-0-0-0-0-0-0-0-|
b-0-0-0-0-0-0-0-0-|
g-0-0-0-0-0-0-0-0-|
d-----------------|
a-----------------|
E-----------------|

e-0-0-0-0-0-0-0-0-0-0-0-0-0-0-|
b-1-1-1-1-1-1-1-1-1-1-1-1-1-1-|
g-2-2-2-2-2-2-2-2-2-2-2-2-2-2-|
d-----------------------------|
a-----------------------------|
E-----------------------------|

e-0-0-0-0-0-0-0-0-0-0-0-0-0-0-|
b-0-0-0-0-0-0-0-0-0-0-0-0-0-0-|
g-0-0-0-0-0-0-0-0-0-0-0-0-0-0-|
d-----------------------------|
a-----------------------------|
E-----------------------------|

e-0-0-0-0-0-0-0-0-0-0-0-0-0-0-|
b-1-1-1-1-1-1-1-1-1-1-1-1-1-1-|
g-2-2-2-2-2-2-2-2-2-2-2-2-2-2-|
d-----------------------------|
a-----------------------------|
E-----------------------------|

e-0-0-0-0-0-0-0-0-0-0-0-0-0-0-|
b-0-0-0-0-0-0-0-0-0-0-0-0-0-0-|
g-0-0-0-0-0-0-0-0-0-0-0-0-0-0-|
d-----------------------------|
a-----------------------------|
E-----------------------------|

let the the last notes ring out
e-0--------------------------|
b-0--------------------------|
g-1--------------------------|
d-2--------------------------|
a----------------------------|
E----------------------------|