Misc. Unsigned Bands - Metal Interface - Entrance Of The Damned Text Guitar Tab

Learn the song with the online tablature player
ENTRANCE OF THE DAMNED-Metal Interface 2008

Tunning: DADGAd (Can also be played in standard)

Intro
d|---------------------------------------------------------------------------|
A|---------------------------------------------------------------------------|
G|-----5--------5--------5---------------------------------------------------|
D|--------4--------4--------4-3-2-1------------------------------------------|
A|--3--------3--------3--------------5--9--7---5--9--7---5--9--7-6-4-3-------|
D|-----------------------------------3--7--5---3--7--5---3--7--5-4-2-1-------|
(Repeat once)

d|---------------------------------------------------------------------------|
A|---------------------------------------------------------------------------|
G|---------------------------------------------------------------------------|
D|---------------------------------------------------------------------------|
A|-7-7-7-11-9--7-7-7-11-9--7-7-7-11-9--7-7-7-6-6-6-5-5-5-4-4-4-3-3-3-2-2-2x--|
D|-5-5-5--9-7--5-5-5--9-7--5-5-5--9-7--5-5-5-4-4-4-3-3-3-2-2-2-1-1-1-0-0-0x--|

d|---------------------------------------------------------------------------|
A|---------------------------------------------------------------------------|
G|---------------------------------------------------------------------------|
D|---------------------------------------------------------------------------|
A|-5-5-9--5-5-7--5-5-9--5-5-7--5-5-9--5-5-7--5-5-9--5-5-7--5-5-9--5-5-9------|
D|-3-3-7--3-3-5--3-3-7--3-3-5--3-3-7--3-3-5--3-3-7--3-3-5--3-3-7--3-3-5------|

Bridge
d|---------------------------------------------------------------------------|
A|---------7-6------------------9-8-----------------11-10--------------------|
G|---------------7-6-----------------9-8------------------11-10--------------|
D|------5------------7-6-----7-----------9-8------9-------------11-10--------|
A|--5-7------------------7-9-----------------9-11---------------------9-7-5--|
D|--3-5------------------5-7-----------------7--9---------------------7-5-3--|
(Repeat once)

Chorus
d|---------------------------------------------------------------------------|
A|---------------------------------------------------------------------------|
G|--------------------------------------5--------7-------7-------------------|
D|-----------------------------------------4--------6-------4h6--------------|
A|--7-7--5\12--9-9---7-7--5\12--9-9--3--------5--------3---------11--9--7--5-|
D|--5-5--3\14--7-7---5-5--3\14--7-7-------------------------------9--7--5--3-|

Bridge
d|---------------------------------------------------------------------------|
A|---------7-6------------------9-8-----------------11-10--------------------|
G|---------------7-6-----------------9-8------------------11-10--------------|
D|------5------------7-6-----7-----------9-8------9-------------11-10--------|
A|--5-7------------------7-9-----------------9-11---------------------9-7-5--|
D|--3-5------------------5-7-----------------7--9---------------------7-5-3--|
(Repeat once)

d|---------------------------------------------------------------------------|
A|---------7-6------------------9-8-----------------11-10--------------------|
G|---------------7-6-----------------9-8------------------11-10--------------|
D|------5------------7-6-----7-----------9-8------9-------------11-10--------|
A|--5-7------------------7-9-----------------9-11---------------------9-7-5--|
D|--3-5------------------5-7-----------------7--9---------------------7-5-3--|

Chorus
d|---------------------------------------------------------------------------|
A|---------------------------------------------------------------------------|
G|--------------------------------------5--------7-------7-------------------|
D|-----------------------------------------4--------6-------4h6--------------|
A|--7-7--5\12--9-9---7-7--5\12--9-9--3--------5--------3---------11--9--7--5-|
D|--5-5--3\14--7-7---5-5--3\14--7-7-------------------------------9--7--5--3-|

Intro to Solo
d|---------------------------------------------------------------------------|
A|---------7-6------------------9-8-----------------11-10--------------------|
G|---------------7-6-----------------9-8------------------11-10--------------|
D|------5------------7-6-----7-----------9-8------9-------------11-10--------|
A|--5-7------------------7-9-----------------9-11---------------------9-7-5--|
D|--3-5------------------5-7-----------------7--9---------------------7-5-3--|

e|---------------------------------------------------------------------------|
B|---------------7-6-----------------9-8-------------------------------------|
G|-------------------7-6-----------------9-8---------------------------------|
D|-------------5---------7-6-------7---------9-8-----------------------------|
A|--5--7--9--7----------------7--9----------------9-11--11--9--7--5----------|
E|--3--5--7--5----------------5--7-----------------7-9---9--7--5--3----------|
(Let the last fade out before continuing)

Solo
d|---------------------------------------------------------------------------|
A|-----4-3------------------------6-5----------------7-----------------------|
G|---5-----3-5----------------6-5-----7-5--------------8-7-9-----------------|
D|-------------5-4-3--------6-------------7-6-------7--------7-9-8-----------|
A|-3-----------------4-3--5-------------------6-5--7---------------8-7-8-7---|
D|---------------------------------------------------------------------------|

d|---------------------------------------------------------------------------|
A|------10----9---------------------------------------4----------------------|
G|---11----10---9-11--------------------------------5---3--------------------|
D|-------------------10-9-11-10-------------------3-------5------------------|
A|-9----------------------------10-9-11-9-7-9-5-4-----------4-3-2-1--5--7----|
D|------------------------------------9-7-5-7-3----------------------3--5----|

Chorus
d|---------------------------------------------------------------------------|
A|---------------------------------------------------------------------------|
G|--------------------------------------5--------7-------7-------------------|
D|-----------------------------------------4--------6-------4h6--------------|
A|--7-7--5\12--9-9---7-7--5\12--9-9--3--------5--------3---------11--9--7--5-|
D|--5-5--3\14--7-7---5-5--3\14--7-7-------------------------------9--7--5--3-|

Bridge
d|---------------------------------------------------------------------------|
A|---------7-6------------------9-8-----------------11-10--------------------|
G|---------------7-6-----------------9-8------------------11-10--------------|
D|------5------------7-6-----7-----------9-8------9-------------11-10--------|
A|--5-7------------------7-9-----------------9-11---------------------9-7-5--|
D|--3-5------------------5-7-----------------7--9---------------------7-5-3--|

Outro
d|---------------------------------------------------------------------------|
A|---------------------------------------------------------------------------|
G|-----5--------5--------5--------------5--------5--------5------------------|
D|--------4--------4--------4-3-2-1--------4--------4---------4-3-2-1--------|
A|--3--------3--------3--------------3--------3--------3---------------------|
D|---------------------------------------------------------------------------|

d|---------------------------------------------------------------------------|
A|---------------------------------------------------------------------------|
G|---------------------------------------------------------------------------|
D|---------------------------------------------------------------------------|
A|--5--9--7---5--9--7---5--9--7-6-4-3---5--9--7---5--9--7---5--9--7-6-4-3----|
D|--3--7--5---3--7--5---3--7--5-4-2-1---3--7--5---3--7--5---3--7--5-4-2-1----|

d|---------------------------------------------------------------------------|
A|---------------------------------------------------------------------------|
G|---------------------------------------------------------------------------|
D|---------------------------------------------------------------------------|
A|--7-7-7--11--9--7-7-7--11--9--7-7-7--11--9--5-5-5-5-5-3-3-3-3-3-3\14-9-7-5-|
D|--5-5-5---9--7--5-5-5---9--7--5-5-5---9--7--3-3-3-3-3-1-1-1-1-1-1\12-7-5-3-|

| / slide up
| \ slide down
| h hammer-on
| p pull-off
| ~ vibrato
| + harmonic
| x Mute note