Misc. Unsigned Bands - Metallic Woos - Falling Text Guitar Tab

Learn the song with the online tablature player
CHORDS: G? D Em  C
    e|--3--2--0--0------------|        This is only the first verse of the song
    B|--3--3--0--1------------|        with the intro cuz my parents suck and are
    G|--0--2--0--0------------|        making me get off the computor,but hope you
    D|--0--0--2--2------------|        like it-atleast a little!  THIS IS THE
    A|--2--X--2--3------------|        ORIGINAL WORK OF THE ONE AND ONLY METALLIC
    E|--3--X--0--0------------|        WOO! .k.a. MB&RA  Peace-Up! A-Town!

INTRO
    G           D           Em          C
e|--3-----------2-----------0-----------0-----------|
B|--3--------3--3--------3--0--------2--1--------1--|
G|--0-----0-----2-----2-----0-----2-----0-----0-----|
D|--0--0--------0--0--------2--0--------2--2--------|
A|--2-----------X-----------2-----------3-----------|
E|--3-----------X-----------0-----------0-----------|

    G           D           Em          C
e|--3-----------2-----------0-----------0-----------|
B|--3-----3-----3-----3-----0-----2-----1-----1-----|
G|--0--0-----0--2--2-----2--0--2-----2--0--0-----0--|
D|--0-----------0-----------2-----------2-----------|
A|--2-----------X-----------2-----------3-----------|
E|--3-----------X-----------0-----------0-----------|

/=strum down     You pretty much just alternate strumming up and down
\=strum up       But the pattern does change a little thorughout the song!
BRIDGE
    /\  /\/\  /\/  \/\  /\  /\/\  /\/  \/\  /\  \/\/  \/\  /\/
e|--33--3333--333--333--22--2222--222--222--00--0000--000--000--|
B|--33--3333--333--333--33--3333--333--333--00--0000--000--000--|
G|--00--0000--000--000--22--2222--222--222--00--0000--000--000--|
D|--00--0000--000--000--00--0000--000--000--22--2222--222--222--|
A|--22--2222--222--222--XX--XXXX--XXX--XXX--22--2222--222--222--|
E|--33--3333--333--333--XX--XXXX--XXX--XXX--00--0000--000--000--|
    /\  /\/\  /\/  \/\ VERSE:/\  /\/\  /\  /\/\  /\  /\/\  /\  /\/\  /\  /\/\
e|--00--0000--000--000--|e|--33--3333--22--2222--00--0000--00--0000--00--0000-|
B|--11--1111--111--111--|B|--33--3333--33--3333--00--0000--00--0000--00--0000-|
G|--00--0000--000--000--|G|--00--0000--22--2222--00--0000--00--0000--00--0000-|
D|--22--2222--222--222--|D|--00--0000--00--0000--22--2222--22--2222--22--2222-|
A|--33--3333--333--333--|A|--22--2222--XX--XXXX--22--2222--22--2222--22--2222-|
E|--00--0000--000--000--|E|--33--3333--XX--XXXX--00--0000--00--0000--00--0000-|
Ok, just keep playing the verse until the chorus.

     G               D              Em             C
little girl | eight years old | all alone out |in the cold |
    G          D         Em           C
picked on | crying | moms at home | dying |
    G         D           Em        C
cuts and | bruises | fights she | loses |
        G                 D               Em                 C
all the kids that | laugh at her | they don't kno the | half of her|
   G         D        Em       C
father | drinking | never | thinking |
      G               D               Em                 C
doesn't care | what she needs | finds a knife | and makes her bleed |
      G              D               Em                C
lying on the | kitchen floor | slipping into the | shadows fast |
       G             D                 Em               C
doesn't know | what's in store | jus trying to | forget the past |