Misc. Unsigned Bands - Mist Placed Faith - Rippin Me Off Text Guitar Tab

Learn the song with the online tablature player
Hey guys this songs hard core!
This band is new in the business so try to enjoy the tunes as much as possible.

Intro/Post verse:
e------------------------|
B------------------------|
G------------------------|     x4
D------------------------|
A-3-3-3-3-3-3-3-2-1------|
E-3-3-3-3-3-3-3-2-1------|

Verses
e---------------------------------------------------------------------------|
B---------------------------------------------------------------------------|
G---------------------------------------------------------------------------|
D---------------------------------------------------------------------------|
A-2-2-2-2-2-3-3-2-1--2-2-2-2-2-2-3-3-2--2-2-2-2-2-3-3-2-1-2-2-2-2-2-2-3-3-2-|
E-2-2-2-2-2-3-3-2-1--2-2-2-2-2-2-3-3-2--2-2-2-2-2-3-3-2-1-2-2-2-2-2-2-3-3-2-|

Chorus
e-------------------------------------------------------------------------------|
B-------------------------------------------------------------------------------|
G-------------------------------------------------------------------------------|
D-------------------------------------------------------------------------------|
A-3-3-3-3-3-2--2-2-3-3-3-1--2-2-2-2-2-2-3-3-3-4-4-3--2-3-3-3-1-3-3-3-1--3-3-3-1-|
E-3-3-3-3-3-2--2-2-3-3-3-1--2-2-2-2-2-2-3-3-3-4-4-3--2-3-3-3-1-3-3-3-1--3-3-3-1-|

Ending
e----------------------|
B----------------------|
G----------------------|
D----------------------|
A-2-4-1-3--2-4-1-3/4/3-|
E-2-4-1-3--2-4-1-3/4/3-|

Enjoy the song guys it totally rocks.
peace
Joel