Misc. Unsigned Bands - Mit Tzatziki Ohne Scharf - No Name Text Guitar Tab

Learn the song with the online tablature player
                             No Name - David Sonnabend

e|------6-----------6-----------6-----------6-----------6-----------6--------|
B|---4-----4-----4-----4-----4-----4-----4-----4-----4-----4-----4-----4-----|
G|5-----------5-----------0-----------0-----------------------------------0--|
D|------------------------------------------------6-----------6--------------|
A|---------------------------------------------------------------------------|
E|---------------------------------------------------------------------------|

e|---6-----------6-----------------------------------------------------------|
B|4-----4-----4-----4--------------------------------------------------------|
G|---------------------------------------------------------------------------|
D|---------3-----------------------------------------------------------------|
A|---------------------------------------------------------------------------|
E|---------------------------------------------------------------------------|

| /   slide up
| \   slide down
| h   hammer-on
| p   pull-off
| ~   vibrato
| +   harmonic
| x   Mute note
| b   Bend
| pb  Pre-bend
| br  Bend release
| pbr Pre-bend release
| brb Bend release bend