Misc. Unsigned Bands - Mitzis Revenge - Tin Can Electric Text Guitar Tab

Learn the song with the online tablature player
Mitzi's!! (song's in drop D)

Intro/Verse

E---------------------------------------|
B---------------------------------------|
G---------------------------------------|
D---0-0-3-3-3-5-6-5----0-0-3-0-3-5-6----|
A---0-0-3-0-3-5-6-5----0-0-3-0-3-5-6----|
D---0-0-3-0-3-5-6-5----0-0-3-0-3-5-6----|

Chorus

E---------------------------------------------------------------|
B---------------------------------------------------------------|
G--7--7-7-7-7-7--5--5-5-5-5-5--3--3-3-3-3--3-3-3-3-3-5-5-5-5----|
D--7--7-7-7-7-7--5--5-5-5-5-5--3--3-3-3-3--3-3-3-3-3-5-5-5-5----|
A--5--5-5-5-5-5--3--3-3-3-3-3--1--1-1-1-1--1-1-1-1-1-3-3-3-3----|
D---------------------------------------------------------------|

Link

E------|
B------|
G--7~--|
D--7~--|
A--5~--|
D------|

I haven't wrote down the amount of times, but it is easy to figure out by listening to
the song :)

More Mitzi's up soon :D