Misc. Unsigned Bands - Miwa - Change Text Guitar Tab

Learn song with the online tabulature player
http://www.miwa-web.com/ 


|---------------------------------------------------------------------------------|
|---------------------------------------------------------------------------------|
|---------------------------------------------------------------------------------|
|----9-9-9-9-9-9-9-9--5-5-5-5-5-5-5-5-------------------7-7-7-7-7-7-7-7-----------|
|----7-7-7-7-7-7-7-7--3-3-3-3-3-3-3-3--5-5-5-5-5-5-5-5--5-5-5-5-5-5-5-5-----------|
|--------------------------------------3-3-3-3-3-3-3-3----------------------------|
|
|
|
|---------------------------------------------------------------------------------|
|---------------------------------------------------------------------------------|
|---------------------------------------------------------------------------------|
|----9-9-9-9-9-9-9-9--5-5-5-5-5-5-5-5-------------------7-7-7-7-7-7-7-7----5------|
|----7-7-7-7-7-7-7-7--3-3-3-3-3-3-3-3--5-5-5-5-5-5-5-5--5-5-5-5-5-5-5-5----3------|
|--------------------------------------3-3-3-3-3-3-3-3----------------------------|
|
|
|
|---------------------------------------------------------------------------------|
|---------------------------------------------------------------------------------|
|-----------13-13-11----13-11----13-11----13-11----11-11-11----11-13-11-----------|
|---11-9-11----------14-------14-------14-------14----------14----------14--------|
|
|
|
|---------------------------------------------------------------------------------|
|---------------------------------------------------------------------------------|
|---------------------------------------------------------------------------------|
|---6-6-6-6-6-6-6-6------------------------------------4-4-4-4-4-4-4-4------------|
|---4-4-4-4-4-4-4-4--7-7-7-7-7-7-7-7--4-4-4-4-4-4-4-4--2-2-2-2-2-2-2-2------------|
|--------------------5-5-5-5-5-5-5-5--2-2-2-2-2-2-2-2-----------------------------|
|
|
|
|---------------------------------------------------------------------------------|
|---------------------------------------------------------------------------------|
|---------------------------------------------------------------------------------|
|---6-6-6-6-6-6-6-6---------------------------------------4---4---4---------------|
|---4-4-4-4-4-4-4-4--7-7-7-7-7-7-7-7--4-4-4-4-4-4-4-4-----2---2---2---------------|
|--------------------5-5-5-5-5-5-5-5--2-2-2-2-2-2-2-2-----------------------------|
|
|
|
|---------------------------------------------------------------------------------|
|---------------------------------------------------------------------------------|
|---------------------------------------------------------------------------------|
|---6-6-6-6-6-6-6-6------------------------------------4-4-4-4-4-4-4-4------------|
|---4-4-4-4-4-4-4-4--7-7-7-7-7-7-7-7--4-4-4-4-4-4-4-4--2-2-2-2-2-2-2-2------------|
|--------------------5-5-5-5-5-5-5-5--2-2-2-2-2-2-2-2-----------------------------|
|
|
|---------------------------------------------------------------------------------|
|---------------------------------------------------------------------------------|
|---------------------------------------------------------------------------------|
|---6-6-6-6-6-6-6-6---------------------------------------4---4---4---------------|
|---4-4-4-4-4-4-4-4--7-7-7-7-7-7-7-7--4-4-4-4-4-4-4-4-----2---2---2---------------|
|--------------------5-5-5-5-5-5-5-5--2-2-2-2-2-2-2-2-----------------------------|
|
|
|
|---------------------------------------------------------------------------------|
|-----------------------------------------------2-2-------------------------------|
|-----------------------------------------------2-2-------------------------------|
|----2-4/9--4-4-2-4-2-1---6-6-6-6-6--4-4-4-4-4--2-2-----------------4-4-4-4-------|
|--4----------------------4-4-4-4-4--2-2-2-2-2-------4-4-4-4-4-4-4--2-2-2-2-------|
|----------------------------------------------------2-2-2-2-2-2-2----------------|
|
|
|
|---------------------------------------------------------------------------------|
|---------------------------------------------------------------------------------|
|---------------------------------------------------------------------------------|
|----9-9-9-9-9-9-9-9--5-5-5-5-5-5-5-5-------------------7-7-7-7-7-7-7-7-----------|
|----7-7-7-7-7-7-7-7--3-3-3-3-3-3-3-3--5-5-5-5-5-5-5-5--5-5-5-5-5-5-5-5-----------|
|--------------------------------------3-3-3-3-3-3-3-3----------------------------|
|
|
|
|---------------------------------------------------------------------------------|
|---------------------------------------------------------------------------------|
|---------------------------------------------------------------------------------|
|--4-4-4-4-4--5-5-5-5-5-5------------------7-7-7-7-7-7-7-7------------------------|
|--2-2-2-2-2--3-3-3-3-3-3--5-5-5-5--5-5-5--5-5-5-5-5-5-5-5------------------------|
|--------------------------3-3-3-3--3-3-3-----------------------------------------|
|
|
|
|---------------------------------------------------------------------------------|
|---------------------------------------------------------------------------------|
|---------------------------------------------------------------------------------|
|----9-9-9-9-9-9-9-9--5-5-5-5-5-5-5-5-------------------7-7-7-7-7-7-7-7-----------|
|----7-7-7-7-7-7-7-7--3-3-3-3-3-3-3-3--5-5-5-5-5-5-5-5--5-5-5-5-5-5-5-5-----------|
|--------------------------------------3-3-3-3-3-3-3-3----------------------------|
|
|
|
|---------------------------------------------------------------------------------|
|---------------------------------------------------------------------------------|
|---------------------------------------------------------------------------------|
|--5-5-5-5-5--7-7-7-7-7-7--4--5-5-5-5-5--7-7-7-7-7-7-7-7--5-----------------------|
|--3-3-3-3-3--5-5-5-5-5-5--4--3-3-3-3-3--5-5-5-5-5-5-5-5--3-----------------------|
|--------------------------2------------------------------------------------------|
|
|
|
|---------------------------------------------------------------------------------|
|---------------------------------------------------------------------------------|
|-----------13-13-11----13-11----13-11----13-11----11-11-11----11-13-11-----------|
|---11-9-11----------14-------14-------14-------14----------14----------14--------|