Misc. Unsigned Bands - Modus Operandi - Break It Down Text Guitar Tab

Learn song with the online tabulature player
THIS IS SPOT ON FROM BRAEDEN JAEGER HIMSELF THE GUITARIST OF MODUS OPERANDI I HOPE YOU 
AND I WILL POST THE CHORUS AS SOON AS I RIGHT IT BUT IF YOU HAVE ANY IDEAS FOR THE 
TAB THEM AND SEND THEM TO ME AND IT MAY JUST BE ON OUR NEXT ALBUM!!!

e|--------------------------------------------------------------------------|
B|--------------------------------------------------------------------------|
G|--------------------------------------------------------------------------|
D|------------------------------------------------------------0-3-0-0-------|
A|-----------------------------------------------3-5----------0-3-0-0-------|
D|-0-3-5-6-5-3-5-3-0-3-5-6-5-3-5-0-3-5-6-5-3-5-3-----6-5-3----0-3-0-0-------|

e|--------------------------------------------------------------------------|
B|--------------------------------------------------------------------------|
G|--------------------------------------------------------------------------|
D|---------3-0--3--0-3-5----------------------------------------------------|
A|--------3--0--3--0-----3-5------------------------------------------------|
D|--0-3-5----0--3--0---------3~----X4---------------------------------------|