Misc. Unsigned Bands - Montage - Rise Text Guitar Tab

Learn song with the online tabulature player
This is a riff i came up with for my band. Tell me what you think of it

e|----------------------------------------------------------------------------|
B|----------------------------------------------------------------------------|
G|----------------------------------------------------------------------------|
D|----------------------------------------------------------------------------|
A|-----------------------------5----6-------------------------------------------|
E|-------0-2-3-0-2-3-0-2-3b----------------0-2-3-0-2-3-0-2-3b-----------------|
Repeat 4x

e|----------------------------------------------------------------------------|
B|----------------------------------------------------------------------------|
G|----------------------------------------------------------------------------|
D|----------------------------------------------------------------5-7---------|
A|------------------5-------------------5-7--------------------5-7------------|
E|-5-7----5-7----5-7----5-7---5-5----5-7-------5-7----5-7----5-7--------------|