Misc. Unsigned Bands - Mormon Primary Songs - I Hope They Call Me On A Mission Text Guitar Tab

Learn song with the online tabulature player
e|------------------------------------------|
B|------------------------------------------|
G|------------------------------------------|
D|---4-4-2-0------0-------------------------|
A|-0---------2-0-2--------------------------|
E|------------------------------------------|
 
e|------------------------------------------|
B|------------------------------------------|
G|------------------------------------------|
D|---0-0-4-2-0---0--------------------------|
A|-0-----------2----------------------------|
E|------------------------------------------|
 
e|------------------------------------------|
B|------------------------------------------|
G|------------------------------------------|
D|---4-4-2-0------0-------------------------|
A|-0---------2-0-2--------------------------|
E|------------------------------------------|
 
e|------------------------------------------|
B|------------------------------------------|
G|---22222----------------------------------|
D|---------4-2-0-----0----------------------|
A|-0-------------2-0------------------------|
E|------------------------------------------|