Misc. Unsigned Bands - Mostly Away - There Is A Line Text Guitar Tab

Learn the song with the online tablature player
Mostly Away – There is a line

Tab Explanation

s       Slide
h       Hammer-on
p       Pull-off
T       Tap
B       Bend the note to the fret after the B
R       Release back to the originally bent note
A.H.    Artificial Harmonic
m       Palm Muted
//      Trem Pick (Pick as fast as possible)

Fig. 1
======
e|----------0p2------------3---2---------|
B|------3-------3--------3---------3-----|
G|----2---2-------2----0-----0---0-------|
D|--0------------------------------------|
A|---------------------------------------|
E|-------------------3-------------------|

Fig. 2
======
e|----------0p2--------------------------|
B|------3-------3-------2---2p3--3-------|
G|----2---2-------2-----0---0----0-------|
D|--0-----------------2------------------|
A|------------------0-----0----0---------|
E|---------------------------------------|

There is a line
Between me and sadness
There is a line
I can see its madness

There is a line
Which is growing bigger
There is a line
Which is getting stronger

There is a line
In my head and in my eyes
There is a line
I can see its lies

There is a line
Between you and me
There is a line
Between the sky and the sea

There is a line
And I don’t care after all
There is a line
'Cause today it will fall